Log in

One click and you are in

Login with Facebook Login with Google

Why sign up and log in

Guitar Tabs Explorer
U2 guitar tabs for One

Guitar tabs

Aaron S. Field University of Illinois at Chicago a.field@uic.edu

For anyone interested, I worked out this intro to "One". It may not
be exactly right (sorry, purists) but it sounds decent.

    h=hammer on
    p=pull off
    /=slide up

verses:

        A chord diagramA minorAm                A chord diagramDsus2Dsus2           A chord diagramFmaj7Fmaj7           A chord diagramG MajorG
-----------------------------------------------------------------------------
-----------------------------------------------------------------------------
--h---------9-7-9-7-9-9------7-5-7-5-7-7-----9-7-9-7-9-9---------------------
-5-7--/10--10--------10------7---------7-----7---------7-------10-9-10-9-10-9
--------0----------------/5---------------8---------------/10--10----------10
-----------------------------------------------------------------------------


chorus:

      A chord diagramC majorC                 A chord diagramA minorAm                A chord diagramFmaj7Fmaj7           A chord diagramC majorC
-------------------------------------------------------------------------
----------5-3-5-3-5-5-------5-3-5-3-5-5------5-3-5-3-5-5------5-3-5-3-5-5
----------5---------5-------5---------5------5---------5------5---------5
------------------------------------------3------------------------------
------3----------------2-0---------------------------------3-------------
-------------------------------------------------------------------------


Aaron S. Field
University of Illinois at Chicago
a.field@uic.edu

Other versions of One

OneChords
One (Ver. 2)Chords
One acousticChords
One acoustic (Ver. 2)Chords
One loveChords
One tree hillChords

Almost there ...

Sign in to get your own page with links to favourite songs and more. You are just one click away...

Login with Facebook Login with Google