Search tabs and chords

Search for song, artist or band

Log in

One click and you are in

Login with Facebook Login with Google

Why sign up and log in

Guitar Tabs Explorer
U2 bass tabs for No line on the horizon

Bass tabs

---------------------------------------------|
Album: No Line on the Horizon                |
---------------------------------------------|
Tabbed by: Kyle Lords (mystic2kyle@gmail.com)|
---------------------------------------------|

Note: The sections have notes above them, but all sections are tabbed directly beneath.
Intro:

G:|----------------|----------------|----------------|----------------|
D:|2-2-22-2-2-22222|2-2-22-2-2-22222|2-2-22-2-2-22222|2-2-22-2-2-22222|
A:|----------------|----------------|----------------|----------------|
E:|----------------|----------------|----------------|----------------|
   1 + 2 + 3 + 4 +  1 + 2 + 3 + 4 +  1 + 2 + 3 + 4 +  1 + 2 + 3 + 4 +

|----------------|----------------|----------------|----------------|
|6-6-66-6-6-66666|6-6-66-6-6-66666|2-2-22-2-2-22222|2-2-22-2-2-22222|
|----------------|----------------|----------------|----------------|
|----------------|----------------|----------------|----------------|
 1 + 2 + 3 + 4 +  1 + 2 + 3 + 4 +  1 + 2 + 3 + 4 +  1 + 2 + 3 + 4 +

Verse 1:

G:|----------------|----------------|----------------|----------------|
D:|2-2-22-2-2-22222|2-2-22-2-2-22222|2-2-22-2-2-22222|2-2-22-2-2-22222|
A:|----------------|----------------|----------------|----------------|
E:|----------------|----------------|----------------|----------------|
   1 + 2 + 3 + 4 +  1 + 2 + 3 + 4 +  1 + 2 + 3 + 4 +  1 + 2 + 3 + 4 +

|----------------|----------------|----------------|----------------|
|6-6-66-6-6-66666|6-6-66-6-6-66666|2-2-22-2-2-22222|2-2-22-2-2-22222|
|----------------|----------------|----------------|----------------|
|----------------|----------------|----------------|----------------|
 1 + 2 + 3 + 4 +  1 + 2 + 3 + 4 +  1 + 2 + 3 + 4 +  1 + 2 + 3 + 4 +

|----------------|----------------|----------------|----------------|
|2-2-22-2-2-22222|2-2-22-2-2-22222|2-2-22-2-2-22222|2-2-22-2-2-22222|
|----------------|----------------|----------------|----------------|
|----------------|----------------|----------------|----------------|
 1 + 2 + 3 + 4 +  1 + 2 + 3 + 4 +  1 + 2 + 3 + 4 +  1 + 2 + 3 + 4 +

|----------------|----------------|----------------|----------------|
|6-6-66-6-6-66666|6-6-66-6-6-66666|2-2-22-2-2-22222|2-2-22-2-2-22222|
|----------------|----------------|----------------|----------------|
|----------------|----------------|----------------|----------------|
 1 + 2 + 3 + 4 +  1 + 2 + 3 + 4 +  1 + 2 + 3 + 4 +  1 + 2 + 3 + 4 +

Chorus 1:

G:|----------------|----------------|----------------|----------------|
D:|----------------|7-7-77-7-7-777772-2-22-2-2-22222|2-2-22-2-2-22222|
A:|3-3-33-3-3-33333/----------------|----------------|----------------|
E:|----------------|----------------|----------------|----------------|
   1 + 2 + 3 + 4 +  1 + 2 + 3 + 4 +  1 + 2 + 3 + 4 +  1 + 2 + 3 + 4 +


Verse 2:

G:|----------------|----------------|----------------|----------------|
D:|2-2-22-2-2-22222|2-2-22-2-2-22222|2-2-22-2-2-22222|2-2-22-2-2-22222|
A:|----------------|----------------|----------------|----------------|
E:|----------------|----------------|----------------|----------------|
   1 + 2 + 3 + 4 +  1 + 2 + 3 + 4 +  1 + 2 + 3 + 4 +  1 + 2 + 3 + 4 +

|----------------|----------------|----------------|----------------|
|6-6-66-6-6-66666|6-6-66-6-6-66666|2-2-22-2-2-22222|2-2-22-2-2-22222|
|----------------|----------------|----------------|----------------|
|----------------|----------------|----------------|----------------|
 1 + 2 + 3 + 4 +  1 + 2 + 3 + 4 +  1 + 2 + 3 + 4 +  1 + 2 + 3 + 4 +

|----------------|----------------|----------------|----------------|
|2-2-22-2-2-22222|2-2-22-2-2-22222|2-2-22-2-2-22222|2-2-22-2-2-22222|
|----------------|----------------|----------------|----------------|
|----------------|----------------|----------------|----------------|
 1 + 2 + 3 + 4 +  1 + 2 + 3 + 4 +  1 + 2 + 3 + 4 +  1 + 2 + 3 + 4 +

|----------------|----------------|----------------|----------------|
|6-6-66-6-6-66666|6-6-66-6-6-66666|2-2-22-2-2-22222|2-2-22-2-2-22222|
|----------------|----------------|----------------|----------------|
|----------------|----------------|----------------|----------------|
 1 + 2 + 3 + 4 +  1 + 2 + 3 + 4 +  1 + 2 + 3 + 4 +  1 + 2 + 3 + 4 +


Chorus 2:

G:|----------------|----------------|----------------|----------------|
D:|----------------|7-7-77-7-7-77777|2-2-22-2-2-22222|2-2-22-2-2-222--|
A:|3-3-33-3-3-33333/----------------|----------------|--------------55|
E:|----------------|----------------|----------------|----------------|
   1 + 2 + 3 + 4 +  1 + 2 + 3 + 4 +  1 + 2 + 3 + 4 +  1 + 2 + 3 + 4 +

|----------------|----------------|----------------|----------------|
|----------------|7-7-77-7-7-77777|2-2-22-2-2-22222|2-2-22-2-2-22222|
|3-3-33-3-3-33333/----------------|----------------|----------------|
|----------------|----------------|----------------|----------------|
 1 + 2 + 3 + 4 +  1 + 2 + 3 + 4 +  1 + 2 + 3 + 4 +  1 + 2 + 3 + 4 +


Bridge:

G:|----------------|----------------|----------------|----------------|
D:|2-2-22-2-2-22222|2-2-22-2-2-22222/7-7-77-7-7-77777|7-7-77-7-7-77777
A:|----------------|----------------|----------------|----------------|
E:|----------------|----------------|----------------|----------------|
   1 + 2 + 3 + 4 +  1 + 2 + 3 + 4 +  1 + 2 + 3 + 4 +  1 + 2 + 3 + 4 +

|----------------|----------------|----------------|----------------|
2-2-22-2-2-22222|2-2-22-2-2-22222/7-7-77-7-7-77777|7-7-77-7-7-77777|
|----------------|----------------|----------------|----------------|
|----------------|----------------|----------------|----------------|
 1 + 2 + 3 + 4 +  1 + 2 + 3 + 4 +  1 + 2 + 3 + 4 +  1 + 2 + 3 + 4 +

|----------------|----------------|----------------|----------------|
|----------------|----------------|----------------|----------------|
|9-9-99-9-9-99999|9-9-99-9-9-99999|----------------|----------------|
|----------------|----------------|7-7-77-7-7-77777|7-7-77-7-7-77777|
 1 + 2 + 3 + 4 +  1 + 2 + 3 + 4 +  1 + 2 + 3 + 4 +  1 + 2 + 3 + 4 +

|----------------|----------------|----------------|4-4-44-4-4-44444|
|5-5-55-5-5-55555|----------------|----------------|----------------|
|----------------|5-5-55-4-4-44444|2-2-22-2-2-22222/----------------|
|----------------|----------------|----------------|----------------|
 1 + 2 + 3 + 4 +  1 + 2 + 3 + 4 +  1 + 2 + 3 + 4 +  1 + 2 + 3 + 4 +

Verse 3:

G:|----------------|----------------|----------------|----------------|
D:|2-2-22-2-2-22222|2-2-22-2-2-22222|2-2-22-2-2-22222|2-2-22-2-2-22222|
A:|----------------|----------------|----------------|----------------|
E:|----------------|----------------|----------------|----------------|
   1 + 2 + 3 + 4 +  1 + 2 + 3 + 4 +  1 + 2 + 3 + 4 +  1 + 2 + 3 + 4 +

|----------------|----------------|----------------|----------------|
|6-6-66-6-6-66666|6-6-66-6-6-66666|2-2-22-2-2-22222|2-2-22-2-2------|
|----------------|----------------|----------------|----------------|
|----------------|----------------|----------------|----------------|
 1 + 2 + 3 + 4 +  1 + 2 + 3 + 4 +  1 + 2 + 3 + 4 +  1 + 2 + 3 + 4 +

|----------------|----------------|----------------|----------------|
|2-2-22-2-2-22222|2-2-22-2-2-22222|2-2-22-2-2-22222|2-2-22-2-2-22222|
|----------------|----------------|----------------|----------------|
|----------------|----------------|----------------|----------------|
 1 + 2 + 3 + 4 +  1 + 2 + 3 + 4 +  1 + 2 + 3 + 4 +  1 + 2 + 3 + 4 +

|----------------|----------------|----------------|----------------|
|6-6-66-6-6-66666|6-6-66-6-6-66666|2-2-22-2-2-22222|2-2-22-2-2-22222|
|----------------|----------------|----------------|----------------|
|----------------|----------------|----------------|----------------|
 1 + 2 + 3 + 4 +  1 + 2 + 3 + 4 +  1 + 2 + 3 + 4 +  1 + 2 + 3 + 4 +


Chorus 3:

G:|----------------|----------------|----------------|----------------|
D:|----------------|7-7-77-7-7-777772-2-22-2-2-22222|2-2-22-2-2-222--|
A:|3-3-33-3-3-33333/----------------|----------------|--------------55|
E:|----------------|----------------|----------------|----------------|
   1 + 2 + 3 + 4 +  1 + 2 + 3 + 4 +  1 + 2 + 3 + 4 +  1 + 2 + 3 + 4 +

|----------------|----------------|----------------|----------------|
|----------------|7-7-77-7-7-777772-2-22-2-2-22222|2-2-22-2-2-22222|
|3-3-33-3-3-33333/----------------|----------------|----------------|
|----------------|----------------|----------------|----------------|
 1 + 2 + 3 + 4 +  1 + 2 + 3 + 4 +  1 + 2 + 3 + 4 +  1 + 2 + 3 + 4 +

Outro:

G:|----------------|----------------|----------------|----------------|
D:|2-2-22-2-2-22222|2-2-22-2-2-22222|2-2-22-2-2-22222|2-2-22-2-2-22222|
A:|----------------|----------------|----------------|----------------|
E:|----------------|----------------|----------------|----------------|
   1 + 2 + 3 + 4 +  1 + 2 + 3 + 4 +  1 + 2 + 3 + 4 +  1 + 2 + 3 + 4 +

|----------------|----------------|----------------|----------------|
|6-6-66-6-6-66666|6-6-66-6-6-66666|2-2-22-2-2-22222|2-2-22-2-2-22222|
|----------------|----------------|----------------|----------------|
|----------------|----------------|----------------|----------------|
 1 + 2 + 3 + 4 +  1 + 2 + 3 + 4 +  1 + 2 + 3 + 4 +  1 + 2 + 3 + 4 +


Additional info for how to play this song (changes in the song, etc.)
can be obtained by e-mailing me at the address provided above.

Questions and comments also welcome. Rock on.

Almost there ...

Sign in to get your own page with links to favourite songs and more. You are just one click away...

Login with Facebook Login with Google