Search tabs and chords

Search for song, artist or band

Log in

One click and you are in

Login with Facebook Login with Google

Why sign up and log in

Guitar Tabs Explorer
U2 guitar tabs for New york

Guitar tabs

Tuning: Standard (E A D G B E)

Key: A chord diagramC majorC

Difficulty: Novice

Intro:

e|------------|----|---------------|----|
B|------------|----|---------------|----|
G|------------|----|---------------|----|
D|--7~---5~---|----|--7~--5~-------|----| (3x)
A|------------|----|----------5~---|----|
E|------------|----|---------------|----|

Guitar nº2:

e|--|--|--|--|--|--|--|--|--|--|---------------------------|------------------------------|
B|--|--|--|--|--|--|--|--|--|--|---------------------------|------------------------------|
G|--|--|--|--|--|--|--|--|--|--|----8---8---8---8---8---8--|----10---10---10---8---8---8--|
D|--|--|--|--|--|--|--|--|--|--|--9---9---9---7---7---7----|--9----9----9----9---9---9----|
A|--|--|--|--|--|--|--|--|--|--|---------------------------|------------------------------|
E|--|--|--|--|--|--|--|--|--|--|---------------------------|------------------------------|


Verse:

e|------------|----|---------------|----|
B|------------|----|---------------|----|
G|------------|----|---------------|----|
D|--7~---5~---|----|--7~--5~-------|----| (3x)
A|------------|----|----------5~---|----|
E|------------|----|---------------|----|

e|---------------|----|-----------|----|
B|---------------|----|-----------|----|
G|---------------|----|-----------|----|
D|--7~---5~------|----|--7~--5~---|----| (2x)
A|-----------5---|----|-----------|----|
E|---------------|----|-----------|----|

e|---------------|----|
B|---------------|----|
G|---------------|----|
D|--7~---5~------|----|
A|-----------5---|----|
E|---------------|----|

Guitar nº2:

e|---------------------------|------------------------------|
B|---------------------------|------------------------------|
G|----8---8---8---8---8---8--|----10---10---10---8---8---8--|
D|--9---9---9---7---7---7----|--9----9----9----9---9---9----| (8x)
A|---------------------------|------------------------------|
E|---------------------------|------------------------------|

Chorus:

e|-------------------|-------------------|-------------------|-------------------|
B|-------------------|-------------------|-------------------|-------------------|
G|--2-2-2-2-2-2-2-2--|-------------------|--5-5-5-5-5-5-5-5--|-------------------|
D|--2-2-2-2-2-2-2-2--|--5-5-5-5-5-5-5-5--|--5-5-5-5-5-5-5-5--|--5-5-5-5-5-5-5-5--| (4x)
A|--0-0-0-0-0-0-0-0--|--5-5-5-5-5-5-5-5--|--3-3-3-3-3-3-3-3--|--5-5-5-5-5-5-5-5--|
E|-------------------|--3-3-3-3-3-3-3-3--|-------------------|--3-3-3-3-3-3-3-3--|

Guitar nº2:

e|-------------------|-------------------|-------------------|-------------------|
B|-------------------|-------------------|-------------------|-------------------|
G|--9-9-9-9-9-9-9-9--|--7-7-7-7-7-7-7-7--|--9-9-9-9-9-9-9-9--|--7-7-7-7-7-7-7-7--|
D|--x-x-x-x-x-x-x-x--|--x-x-x-x-x-x-x-x--|--x-x-x-x-x-x-x-x--|--x-x-x-x-x-x-x-x--| (4x)
A|--7-7-7-7-7-7-7-7--|--5-5-5-5-5-5-5-5--|--7-7-7-7-7-7-7-7--|--5-5-5-5-5-5-5-5--|
E|-------------------|-------------------|-------------------|-------------------|

Guitar nº3 (enters on 3rd time on guitar 1 and guitar 2)

e|---------------|---------------|---------------|---------------|
B|----8--12--10--|----8--12--10--|----8--12--10--|----8--12--10--|
G|--9------------|--9------------|--9------------|--9------------|
D|---------------|---------------|---------------|---------------| (2x)
A|---------------|---------------|---------------|---------------|
E|---------------|---------------|---------------|---------------|


Verse:

e|------------|----|---------------|----|
B|------------|----|---------------|----|
G|------------|----|---------------|----|
D|--7~---5~---|----|--7~--5~-------|----| (2x)
A|------------|----|----------5~---|----|
E|------------|----|---------------|----|

Guitar nº2:

e|---------------------------|------------------------------|
B|---------------------------|------------------------------|
G|----8---8---8---8---8---8--|----10---10---10---8---8---8--|
D|--9---9---9---7---7---7----|--9----9----9----9---9---9----| (4x)
A|---------------------------|------------------------------|
E|---------------------------|------------------------------|


Chorus:

e|-------------------|-------------------|-------------------|-------------------|
B|-------------------|-------------------|-------------------|-------------------|
G|--2-2-2-2-2-2-2-2--|-------------------|--5-5-5-5-5-5-5-5--|-------------------|
D|--2-2-2-2-2-2-2-2--|--5-5-5-5-5-5-5-5--|--5-5-5-5-5-5-5-5--|--5-5-5-5-5-5-5-5--| (4x)
A|--0-0-0-0-0-0-0-0--|--5-5-5-5-5-5-5-5--|--3-3-3-3-3-3-3-3--|--5-5-5-5-5-5-5-5--|
E|-------------------|--3-3-3-3-3-3-3-3--|-------------------|--3-3-3-3-3-3-3-3--|

Guitar nº2:

e|-------------------|-------------------|-------------------|-------------------|
B|-------------------|-------------------|-------------------|-------------------|
G|--9-9-9-9-9-9-9-9--|--7-7-7-7-7-7-7-7--|--9-9-9-9-9-9-9-9--|--7-7-7-7-7-7-7-7--|
D|--x-x-x-x-x-x-x-x--|--x-x-x-x-x-x-x-x--|--x-x-x-x-x-x-x-x--|--x-x-x-x-x-x-x-x--| (4x)
A|--7-7-7-7-7-7-7-7--|--5-5-5-5-5-5-5-5--|--7-7-7-7-7-7-7-7--|--5-5-5-5-5-5-5-5--|
E|-------------------|-------------------|-------------------|-------------------|

Guitar nº3 (enters on 3rd time on guitar 1 and guitar 2)

e|---------------|---------------|---------------|---------------|
B|----8--12--10--|----8--12--10--|----8--12--10--|----8--12--10--|
G|--9------------|--9------------|--9------------|--9------------|
D|---------------|---------------|---------------|---------------| (2x)
A|---------------|---------------|---------------|---------------|
E|---------------|---------------|---------------|---------------|


Break:
(No Guitar)


Verse:

e|------------|----|---------------|----|
B|------------|----|---------------|----|
G|------------|----|---------------|----|
D|--7~---5~---|----|--7~--5~-------|----| (2x)
A|------------|----|----------5~---|----|
E|------------|----|---------------|----|

e|------------|----|
B|------------|----|
G|------------|----|
D|--7~---5~---|----|
A|------------|----|
E|------------|----|

Guitar nº2:

e|---------------------------|------------------------------|
B|---------------------------|------------------------------|
G|----8---8---8---8---8---8--|----10---10---10---8---8---8--|
D|--9---9---9---7---7---7----|--9----9----9----9---9---9----| (5x)
A|---------------------------|------------------------------|
E|---------------------------|------------------------------|


Final Chorus:

e|-------------------|-------------------|-------------------|-------------------|
B|-------------------|-------------------|-------------------|-------------------|
G|--2-2-2-2-2-2-2-2--|-------------------|--5-5-5-5-5-5-5-5--|-------------------|
D|--2-2-2-2-2-2-2-2--|--5-5-5-5-5-5-5-5--|--5-5-5-5-5-5-5-5--|--5-5-5-5-5-5-5-5--| (5x)
A|--0-0-0-0-0-0-0-0--|--5-5-5-5-5-5-5-5--|--3-3-3-3-3-3-3-3--|--5-5-5-5-5-5-5-5--|
E|-------------------|--3-3-3-3-3-3-3-3--|-------------------|--3-3-3-3-3-3-3-3--|

e|-------------------|-------------------|-------------------|-------------------|-------|
B|-------------------|-------------------|-------------------|-------------------|-------|
G|--2-2-2-2-2-2-2-2--|-------------------|--5-5-5-5-5-5-5-5--|-------------------|--2----|
D|--2-2-2-2-2-2-2-2--|--5-5-5-5-5-5-5-5--|--5-5-5-5-5-5-5-5--|--5-5-5-5-5-5-5-5--|--2----|
A|--0-0-0-0-0-0-0-0--|--5-5-5-5-5-5-5-5--|--3-3-3-3-3-3-3-3--|--5-5-5-5-5-5-5-5--|--0----|
E|-------------------|--3-3-3-3-3-3-3-3--|-------------------|--3-3-3-3-3-3-3-3--|-------|

Guitar nº2:

e|-------------------|-------------------|-------------------|-------------------|
B|-------------------|-------------------|-------------------|-------------------|
G|--5-5-5-5-5-5-5-5--|--4-4-4-4-4-4-4-4--|-------------------|-------------------|
D|--x-x-x-x-x-x-x-x--|--x-x-x-x-x-x-x-x--|--7-7-7-7-7-7-7-7--|--5-5-5-5-5-5-5-5--| (6x)
A|--3-3-3-3-3-3-3-3--|--2-2-2-2-2-2-2-2--|--x-x-x-x-x-x-x-x--|--x-x-x-x-x-x-x-x--|
E|-------------------|-------------------|--5-5-5-5-5-5-5-5--|--3-3-3-3-3-3-3-3--|

Guitar nº3 (enters on 3rd time on guitar 1 and guitar 2)

e|---------------|---------------|---------------|---------------|
B|----8--12--10--|----8--12--10--|----8--12--10--|----8--12--10--|
G|--9------------|--9------------|--9------------|--9------------|
D|---------------|---------------|---------------|---------------| (4x)
A|---------------|---------------|---------------|---------------|
E|---------------|---------------|---------------|---------------|


Ending:

e|-------------|
B|----8--------|
G|--9---7--9---|
D|-------------|
A|-------------|
E|-------------|

************************************

| x   Dead note
| ~   Vibrato

************************************

Almost there ...

Sign in to get your own page with links to favourite songs and more. You are just one click away...

Login with Facebook Login with Google