Search tabs and chords

Search for song, artist or band

Log in

One click and you are in

Login with Facebook Login with Google

Why sign up and log in

Guitar Tabs Explorer
U2 guitar tabs for New years day (Ver. 2)

Guitar tabs

Tuning: Standard (E chord diagramEE A chord diagramAA D chord diagramDD G chord diagramGG B chord diagramBB E chord diagramEE)

Difficulty: Novice

x2
e|-----19--15--17--12--15--10------------------------------------------------|
B|-----------------------------17--12----------------------------------------|
G|---------------------------------------------------------------------------|
D|---------------------------------------------------------------------------|
A|---------------------------------------------------------------------------|
E|---------------------------------------------------------------------------|



e|---------------------------------------------------------------------------|
B|---------------------------------------------------------------------------|
G|---------------------------------------------------------------------------|
D|---------------------------------------------------------------------------|
A|--------5/2-5/7-0-2-------5-2----------10-10-9-5---10-9-2---10-9-9-10-12-9-|
E|----0-5-------------0-2-5--------------------------------------------------|



************************************

| /  Slide up

************************************

Other versions of New Years Day

New years dayChords
New years dayTabs

Almost there ...

Sign in to get your own page with links to favourite songs and more. You are just one click away...

Login with Facebook Login with Google