Search tabs and chords

Search for song, artist or band

Log in

One click and you are in

Login with Facebook Login with Google

Why sign up and log in

Guitar Tabs Explorer
U2 guitar tabs for Miracle drug

Guitar tabs with lyrics

Tuning: Standard

Difficulty: Intermediate


Miracle Drug -by- U2
Intro:

e|---------------------------7-----|
b|-----10--------------------------|
g|-7--------9---7/9-----7--------7-|  2x
d|---------------------------------|
a|---------------------------------|
E|---------------------------------|


Verse :
e|---------------------------7-----|
b|-----10--------------------------|
g|-7--------9---(7/9)---7--------7-|  4x
d|---------------------------------|
a|---------------------------------|
E|---------------------------------|

 'I want to trip inside your head  Spend the day there
To hear the things you haven't said And see what you might see'

'I want to hear you when you call Do you feel anything at all
 I want to see your thoughts take shape And walk right out'


Pre chorus-
e|----------------------------------|
b|----------------------------------|
g|----------------------------------|
d|----------------------------------|
a|-5--4---0*-------------5--4-------|
E|-------------------------------3*-|

'Freedom has a scent  Like the top of a new born baby's head'

Chorus
e|-10-10-10-10-10-10-10-10--10-10-10-10-10-10-10-10-|
b|-7--7--7--7--7--7--7--7---8--8--8--8--8--8--8--8--|
g|-7--7--7--7--7--7--7--7---7--7--7--7--7--7--7--7--|
d|--------------------------------------------------| 3x
a|--------------------------------------------------|
E|--------------------------------------------------|

'The songs are in your eyes  I see them when you smile
 I've seen enough, I'm not giving up miracle drug'

Then there's this part before the second verse:
e|-----7------------------------------7------|
b|------------------10-----------------------|
g|-7-----9-----7---------9------7----------7-|
d|-------------------------------------------|
a|-------------------------------------------|
E|-------------------------------------------|

Second Verse:
e|---------------------------7-----|
b|-----10--------------------------|
g|-7--------9---(7/9)---7--------7-|  3x
d|---------------------------------|
a|---------------------------------|
E|---------------------------------|

'Of science and the human heart There is no limit
There is no failure here sweetheart Just when you quit
 I am you and you are mine Love makes nonsense of space'


Pre chorus
e|----------------------------|
b|--------10------------------|
g|-7h9---------9---7---9---6--|
d|----------------------------|
a|----------------------------|
E|----------------------------|

  'And time will disappear'

e|-------------------------7-----|
b|-------10------------10----10--|
g|-7h9--------9--7-7-------------|
d|-------------------------------|
a|-------------------------------|
E|-------------------------------|

 'Love and logic keep us clear'


e|---------------------------|
b|-------10-----------10-----|
g|-7h9-------9--7-7-------6--|
d|---------------------------|
a|---------------------------|
E|---------------------------|


   'Reason is on our side'


e|------------|
b|------------|
g|------------|
d|------------|
a|-5--4-------|
E|--------3*--|

  Love, oohh...


Then do the CHORUS, but it's 5x, not 3x

Solo
This part Edge plays with a slide
e|-----------------------------------|
b|-----------------------------------|
g|-----------------------------------|
d|-7--7/12-----1211----7-----7/9---|
a|-----------------------------------|
E|-----------------------------------|

e|----------------------------------|
b|----------------------------------|
g|----------------------------------|
d|-11/12-----12/14----1211--9------|
a|----------------------------------|
E|----------------------------------|

e|--------------------------------------|
b|-1210--/14--10-------75--/10--7---|
g|--------------------------------------|
d|--------------------------------------|
a|--------------------------------------|
E|--------------------------------------|

'Oh God, I need your help tonight'

This part is played normally...you might want a Herdim pick to get that 'ching' sound.

	  (8x)			(8x)		   (8x)		 (8x)
e|-121212121212121212/14141414141414-5-5-5-5-5-5-5-5--7-7-7-7-7-7-7-7---------|
b|----------------------------------------------------------------------------|


e|-17171717171717-15-15/14141414141414-12121212/14-14-14-14-10101010-10/7777--|
b|----------------------------------------------------------------------------|

Bridge
e|-10-10-10--10-10-10--10--10-10-10--9--9--9--9--9--|
b|-8--8--8---7--7--7--7-----5--5---5--5--5--5--5--5-|
g|--------------------------------------------------|
d|--------------------------------------------------|
a|--------------------------------------------------|
E|--------------------------------------------------|
 2nd part of bridge
e|9--17-17-17--17-17-17--17-17-17-15-15-15-15-15-15--|
b|15-15-15--14-14-14--12-12-12-12-12-12-12-12-12-----|
g|---------------------------------------------------|
d|---------------------------------------------------|
a|---------------------------------------------------|
E|---------------------------------------------------|

'Beneath the noise      Below the din         I hear a voice
 It's whispering In science and in medicine I was a stranger You took me in'

(both parts of the bridge are together, but i sectioned them so it's easier)


can't make out if the last chorus changes, but just play the above chorus tab 8x and it's fine.


End with:
e|-7--|
b|-7--|
g|-7--|
d|----|
a|----|
E|----|


Hope all is good, this is my first proper tab, its probably poor, but there ya go.

Almost there ...

Sign in to get your own page with links to favourite songs and more. You are just one click away...

Login with Facebook Login with Google