Search tabs and chords

Search for song, artist or band

Log in

One click and you are in

Login with Facebook Login with Google

Why sign up and log in

Guitar Tabs Explorer
U2 bass tabs for Miracle drug

Bass tabs

U2 - Miracle drug

A=10th fret, B=11th fret, C=12th fret

Intro; 8 bars rest

Verse1 (I want to trip inside your head); 16 bars rest

Pre-chorus1 (Freedom has a scent);
G|----------------|----------------|----------------|----------------|
D|----------------|----------------|----------------|----------------|
A|A-A-A-A-A-A-A-A-|C-C-C-C-C-C-C-C-|5-5-5-5-5-5-5-5-|7-7-7-7-7-7-7-7-|
E|----------------|----------------|----------------|----------------|

Chorus1 (The songs are in your eyes);
G|----------------|----------------|----------------|----------------|
D|----------------|----------------|----------------|----------------|
A|A-A-A-A-A-A-A-A-|C-C-C-C-C-C-C-C-|5-5-5-5-5-5-5-5-|7-7-7-7-7-7-7-7-|
E|----------------|----------------|----------------|----------------|

G|----------------|----------------|----------------|----------------|
D|----------------|----------------|----------------|----------------|
A|A-A-A-A-A-A-A-A-|C-C-C-C-C-C-C-C-|----------------|----------------|
E|----------------|----------------|7-7-7-7-7-7-5-5-|3-3-3-3-3-5-3-5-|

Pre-Verse2;
G|----------------|----------------|----------------|----------------|
D|----------------|----------------|----------------|----------------|
A|5-5-5-5-5-5-5-5-|----------------|----------------|----------------|
E|----------------|5-5-5-5-5-3-5-3-|7-7-7-7-7-5-7-5-|3-3-3-3-3-3-5-3-|

Verse2 (Of science and the human heart);
G|----------------|----------------|----------------|----------------|
D|----------------|----------------|----------------|----------------|
A|5-5-5-5-5-5-5-5-|----------------|----------------|----------------|
E|----------------|5-5-5-5-5-3-5-3-|7-7-7-7-7-5-7-5-|3-3-3-3-3-3-5-3-| 3x

Pre-chorus2 (And time...will disappear);
G|----------------|----------------|----------------|----------------|
D|----------------|----------------|----------------|----------------|
A|A-A-A-A-A-A-A-A-|C-C-C-C-C-C-C-C-|5-5-5-5-5-5-5-5-|7-7-7-7-7-7-7-7-|
E|----------------|----------------|----------------|----------------| 2x

Chorus2 (The songs are in your eyes);
G|----------------|----------------|----------------|----------------|
D|----------------|----------------|----------------|----------------|
A|A-A-A-A-A-A-A-A-|C-C-C-C-C-C-C-C-|5-5-5-5-5-5-5-5-|7-7-7-7-7-7-7-7-|
E|----------------|----------------|----------------|----------------| 2x

G|----------------|----------------|
D|A-A-A-A-A-A-A-A-|C-C-C-C-C-C-C-C-|
A|----------------|----------------|
E|----------------|----------------|

Break (a miracle drug);
G|----------------|----------------|----------------|----------------|
D|----------------|----------------|----------------|----------------|
A|----------------|----------------|----------------|----------------|
E|7---------------|----------------|----------------|----------------|

G|----------------|----------------|----------------|----------------|
D|----------------|----------------|5---------------|------5h7-5h7-5-|
A|----------------|----------------|----------------|----------------|
E|7---------------|5---------------|----------------|----------------|

G|----------------|----------------|----------------|----------------|
D|----------------|----------------|----------------|------5h7-5h7-5-|
A|----------------|----------------|----------------|----------------|
E|7---------------|5---------------|3---------------|----------------|

G|----------------|----------------|----------------|----------------|
D|----------------|----------------|----------------|----------------|
A|----------------|----------------|----------------|----------------|
E|7---------------|5---------------|3---------------|3---------------|

G|----------------|----------------|----------------|----------------|
D|----------------|----------------|----------------|----------------|
A|A-A-A-A-A-A-A-A-|C-C-C-C-C-C-C-C-|5-5-5-5-5-5-5-5-|7-7-7-7-7-7-7-7-|
E|----------------|----------------|----------------|----------------| 2x

Pre-Chorus3 (Beneath the noise);
G|----------------|----------------|----------------|----------------|
D|----------------|----------------|----------------|----------------|
A|A-A-A-A-A-A-A-A-|C-C-C-C-C-C-C-C-|5-5-5-5-5-5-5-5-|7-7-7-7-7-7-7-7-|
E|----------------|----------------|----------------|----------------|

G|----------------|----------------|----------------|----------------|
D|----------------|----------------|----------------|----------------|
A|A-A-A-A-A-A-A-A-|C-C-C-C-C-C-C-C-|----------------|7-7-7-7-7-7-7-7-|
E|----------------|----------------|7-7-7-7-7-7-7-7-|----------------|

Chorus3 (The songs are in your eyes);
G|----------------|----------------|----------------|----------------|
D|----------------|----------------|----------------|----------------|
A|A-A-A-A-A-A-A-A-|C-C-C-C-C-C-C-C-|5-5-5-5-5-5-5-5-|7-7-7-7-7-7-7-7-|
E|----------------|----------------|----------------|----------------|

G|----------------|----------------|----------------|----------------|
D|----------------|----------------|----------------|----------------|
A|A-A-A-A-A-A-A-A-|C-C-C-C-C-C-C-C-|----------------|7-7-7-7-7-7-7-7-|
E|----------------|----------------|7-7-7-7-7-7-7-7-|----------------| 3x

End on;
G|----------------|
D|----------------|
A|----------------|
E|7---------------|

Almost there ...

Sign in to get your own page with links to favourite songs and more. You are just one click away...

Login with Facebook Login with Google