Search tabs and chords

Search for song, artist or band

Log in

One click and you are in

Login with Facebook Login with Google

Why sign up and log in

Guitar Tabs Explorer
U2 guitar tabs for Love is bigger than anything in its way (Ver. 2)

Love Is Bigger Than Anything In Its Way tab by U2 (Ver. 2)

U2 guitar tabs for Love is bigger than anything in its way (Ver. 2)

Guitar tabs

Tuning: Standard (E chord diagramEE A chord diagramAA D chord diagramDD G chord diagramGG B chord diagramBB E chord diagramEE)

Difficulty: Novice

Intro:
e|--------------------|-----------------------|
B|--------------------|-----------------------|
G|--------------------|-----------------------|
D|--2-1-2--2-1-2/7--6-|--2-1-2--2-1-2/7--6-2--|
A|--------------------|-----------------------|
E|--------------------|-----------------------|

Verse 1:
e|------------------|-----------------|-----------------|-----------------|
B|------------------|-----------------|-----------------|-----------------|
G|------------------|-----------------|-----------------|-----------------| x2
D|------------------|-----------------|-----------------|-----------------|
A|------------------|-----------------|-----------------|-----------------|
E|--0-0-0-0-0-0-0-0-|-7-7-7-7-7-7-7-7-|-4-4-4-4-4-4-4-4-|-5-5-5-5-5-5-5-5-|

Chorus 1:
e|------------------|-----------------|-----------------|-----------------|
B|------------------|-----------------|-----------------|-----------------|
G|------------------|-6-6-6-6-6-6-6-6-|-1-1-1-1-1-1-1-1-|-8-8-8-8-8-8-8-8-| x2
D|--4-4-4-4-4-4-4-4-|-7-7-7-7-7-7-7-7-|-2-2-2-2-2-2-2-2-|-9-9-9-9-9-9-9-9-|
A|--4-4-4-4-4-4-4-4-|-7-7-7-7-7-7-7-7-|-2-2-2-2-2-2-2-2-|-9-9-9-9-9-9-9-9-|
E|--2-2-2-2-2-2-2-2-|-5-5-5-5-5-5-5-5-|-0-0-0-0-0-0-0-0-|-7-7-7-7-7-7-7-7-|

e|--------------------|-----------------------|
B|--------------------|-----------------------|
G|--------------------|-----------------------|
D|--2-1-2--2-1-2/7--6-|--2-1-2--2-1-2/7--6-2--|
A|--------------------|-----------------------|
E|--------------------|-----------------------|

Verse 2:
e|------------------|-----------------|-----------------|-----------------|
B|------------------|-----------------|-----------------|-----------------|
G|------------------|-----------------|-----------------|-----------------| x2
D|------------------|-----------------|-----------------|-----------------|
A|------------------|-----------------|-----------------|-----------------|
E|--0-0-0-0-0-0-0-0-|-7-7-7-7-7-7-7-7-|-4-4-4-4-4-4-4-4-|-5-5-5-5-5-5-5-5-|

Chorus 2:
e|------------------|-----------------|-----------------|-----------------|
B|------------------|-----------------|-----------------|-----------------|
G|------------------|-6-6-6-6-6-6-6-6-|-1-1-1-1-1-1-1-1-|-8-8-8-8-8-8-8-8-| x2
D|--4-4-4-4-4-4-4-4-|-7-7-7-7-7-7-7-7-|-2-2-2-2-2-2-2-2-|-9-9-9-9-9-9-9-9-|
A|--4-4-4-4-4-4-4-4-|-7-7-7-7-7-7-7-7-|-2-2-2-2-2-2-2-2-|-9-9-9-9-9-9-9-9-|
E|--2-2-2-2-2-2-2-2-|-5-5-5-5-5-5-5-5-|-0-0-0-0-0-0-0-0-|-7-7-7-7-7-7-7-7-|

e|--------------------|-----------------------|
B|--------------------|-----------------------|
G|--------------------|-----------------------|
D|--2-1-2--2-1-2/7--6-|--2-1-2--2-1-2/7--6-2--|
A|--------------------|-----------------------|
E|--------------------|-----------------------|

Bridge:
e|-----------------|-----------------|-----------------|-----------------|
B|-----------------|-----------------|-----------------|-----------------|
G|-8-8-8-8-8-8-8-8-|-6-6-6-6-6-6-6-6-|-1-1-1-1-1-1-1-1-|-3-3-3-3-3-3-3-3-|
D|-9-9-9-9-9-9-9-9-|-7-7-7-7-7-7-7-7-|-2-2-2-2-2-2-2-2-|-4-4-4-4-4-4-4-4-|
A|-9-9-9-9-9-9-9-9-|-7-7-7-7-7-7-7-7-|-2-2-2-2-2-2-2-2-|-4-4-4-4-4-4-4-4-|
E|-7-7-7-7-7-7-7-7-|-5-5-5-5-5-5-5-5-|-0-0-0-0-0-0-0-0-|-2-2-2-2-2-2-2-2-|

e|-----------------|-----------------|-----------------|-----------------|
B|-----------------|-----------------|-----------------|-----------------|
G|-8-8-8-8-8-8-8-8-|-6-6-6-6-6-6-6-6-|-1-1-1-1-1-1-1-1-|-3---------------|
D|-9-9-9-9-9-9-9-9-|-7-7-7-7-7-7-7-7-|-2-2-2-2-2-2-2-2-|-4---------------|
A|-9-9-9-9-9-9-9-9-|-7-7-7-7-7-7-7-7-|-2-2-2-2-2-2-2-2-|-4---------------|
E|-7-7-7-7-7-7-7-7-|-5-5-5-5-5-5-5-5-|-0-0-0-0-0-0-0-0-|-2---------------|

Outro:
e|--------------------|-----------------------|
B|--------------------|-----------------------|
G|--------------------|-----------------------| x4
D|--2-1-2--2-1-2/7--6-|--2-1-2--2-1-2/7--6-2--|
A|--------------------|-----------------------|
E|--------------------|-----------------------|


************************************

| /   Slide up

************************************

Other versions of Love Is Bigger Than Anything In Its Way

Love Is Bigger Than Anything in Its WayChords
Love Is Bigger Than Anything in Its WayTabs

Almost there ...

Sign in to get your own page with links to favourite songs and more. You are just one click away...

Login with Facebook Login with Google