Log in

One click and you are in

Login with Facebook Login with Google

Why sign up and log in

Guitar Tabs Explorer
U2 tabs for I still havent found what im looking for

I Still Haven't Found What I'm Looking For tab by U2

U2 tabs for I still havent found what im looking for

Guitar tabs

Taken from the album October
capo on 4th fret
tab and chords are relative to capo. song is in key of Db.
Intro:
   A chord diagramA augmentedA
-----------------------------------4------
---------5--5----5-----------5--5----5----
------2----2---2----2-----2----2--------2-
------------------------------------------
---0-------------------0------------------
------------------------------------------


   A chord diagramA augmentedA
-----------------------------------4------
---------5--5----5-----------5--5----5----
------2----2---2----2-----2----2--------2-(X2)
------------------------------------------
---0-------------------0------------------
------------------------------------------
"I have climbed the highest mountain..."


   A chord diagramD MajorD
-----------------------------------4------
---------5--5----5-----------5--5----5----
------2----2---2----2-----2----2--------2-
---0-------------------0------------------
------------------------------------------
------------------------------------------
"...be with you, only to..."

   A chord diagramA augmentedA
-----------------------------------4------
---------5--5----5-----------5--5----5----
------2----2---2----2-----2----2--------2-
------------------------------------------
---0-------------------0------------------
------------------------------------------
"...be with you."


repeat those two progressions.


chorus:
   A chord diagramE MajorE                    A chord diagramD MajorD                    A chord diagramA augmentedA
-------------------------------------------------------------------------------
---------5--5----5------------3--3----3------------2--2------3---5--5----5----5
------4----4---4----4------2----2---2----2------2----2---2-2-------2---2----2(X2
------------------------0------------------------------------------------------
---------------------------------------------0---------------------------------
---0---------------------------------------------------------------------------
"But I still haven't found what I'm looking for..."
ⓘ Guitar tab for 'I Still Havent Found What Im Looking For' by U2, a rock band formed in 1976 from Dublin, Ireland. U2 is known for their political rock/pop music.

Other versions of I Still Haven't Found What I'm Looking For

I still haven't found what i'm looking forChords
I still haven't found what i'm looking for (Ver. 2)Chords
I still haven't found what i'm looking for (Ver. 3)Chords
I still haven't found what i'm looking for acousticChords

Almost there ...

Sign in to get your own page with links to favourite songs and more. You are just one click away...

Login with Facebook Login with Google