Search tabs and chords

Search for song, artist or band

Log in

One click and you are in

Login with Facebook Login with Google

Why sign up and log in

Guitar Tabs Explorer
U2 bass tabs for Get on your boots

Bass tabs with lyrics

---------------------------------------------|
Album: No Line on the Horizon                |
---------------------------------------------|
Tabbed by: Kyle Lords (mystic2kyle@gmail.com)|
---------------------------------------------|

Note: The sections have notes above them, but all sections are tabbed directly beneath.
Intro: (Starts after 2-beat drum intro measure)

G:|----------------|----------------|----------------|----------------|
D:|----------------|----------------|----------------|----------------|
A:|5-3---3-----5---|3---3---3-------|5-3---3-----5---|3---3---3-------|
E:|----5-----5-----|--5-------5-3-5-|----5-----5-----|--5-------5-3-5-|
   1 + 2 + 3 + 4 +  1 + 2 + 3 + 4 +  1 + 2 + 3 + 4 +  1 + 2 + 3 + 4 +

|----------------|----------------|----------------|----------------|
|----------------|----------------|----------------|----------------|
|5-3---3-----5---|3---3---3-------|5-3---3-----5---|3---3-----------|
|----5-----5-----|--5-------5-3-5-|----5-----5-----|--5-----5-3-5---|
 1 + 2 + 3 + 4 +  1 + 2 + 3 + 4 +  1 + 2 + 3 + 4 +  1 + 2 + 3 + 4 +

Verse 1:

G:|----------------|----------------|----------------|----------------|
D:|----------------|----------------|----------------|----------------|
A:|5-3---3-----5---|3---3---3-------|5-3---3-----5---|3---3---3-------|
E:|----5-----5-----|--5-------5-3-5-|----5-----5-----|--5-------5-3-5-|
   1 + 2 + 3 + 4 +  1 + 2 + 3 + 4 +  1 + 2 + 3 + 4 +  1 + 2 + 3 + 4 +

|----------------|----------------|----------------|----------------|
|----------------|----------------|----------------|----------------|
|5-3---3-----5---|3---3---3-------|5-3---3-----5---|3---3-----------|
|----5-----5-----|--5-------5-3-5-|----5-----5-----|--5-----5-3-5---|
 1 + 2 + 3 + 4 +  1 + 2 + 3 + 4 +  1 + 2 + 3 + 4 +  1 + 2 + 3 + 4 +

Prechorus 1:

G:|----------------|----------------|----------------|----------------|
D:|----------------|----------------|----------------|----------------|
A:|5-3---3-----5---|3---3---3-------|5-3---3-----5---|3---3---3-------|
E:|----5-----5-----|--5-------5-3-5-|----5-----5-----|--5-------5-3-5-|
   1 + 2 + 3 + 4 +  1 + 2 + 3 + 4 +  1 + 2 + 3 + 4 +  1 + 2 + 3 + 4 +

|----------------|----------------|
|----------------|----------------|
|5-3---3-----5---|3---3-----------|
|----5-----5-----|--5-----5-3-5---|
 1 + 2 + 3 + 4 +  1 + 2 + 3 + 4 +

Verse 2: (Same riff as Intro/Verse 1)

G:|----------------|----------------|----------------|----------------|
D:|----------------|----------------|----------------|----------------|
A:|5-3---3-----5---|3---3---3-------|5-3---3-----5---|3---3---3-------|
E:|----5-----5-----|--5-------5-3-5-|----5-----5-----|--5-------5-3-5-|
   1 + 2 + 3 + 4 +  1 + 2 + 3 + 4 +  1 + 2 + 3 + 4 +  1 + 2 + 3 + 4 +

|----------------|----------------|----------------|----------------|
|----------------|----------------|----------------|----------------|
|5-3---3-----5---|3---3---3-------|5-3---3-----5---|3---3-----------|
|----5-----5-----|--5-------5-3-5-|----5-----5-----|--5-----5-3-5---|
 1 + 2 + 3 + 4 +  1 + 2 + 3 + 4 +  1 + 2 + 3 + 4 +  1 + 2 + 3 + 4 +

Chorus 1: (Intense section)

G:|----------------|----------------|----------------|----------------|
D:|----------------|----------------|----------------|----------------|
A:|----------------|----------------|----------------|----------------|
E:|3-3-3-3-3-3-3-3-|4-4-4-4-4-4-4-4-|3-3-3-3-3-3-3-3-|4-4-4-4-4-4-4-4-|
   1 + 2 + 3 + 4 +  1 + 2 + 3 + 4 +  1 + 2 + 3 + 4 +  1 + 2 + 3 + 4 +

|----------------|----------------|----------------|----------------|
|----------------|----------------|----------------|----------------|
|----------------|----------------|6-6-6-6-6-6-6-6-|8-8-8-8-8-8-8-8-|
|3-3-3-3-3-3-3-3-|6-6-6-6-6-6-6-6-|----------------|----------------|
 1 + 2 + 3 + 4 +  1 + 2 + 3 + 4 +  1 + 2 + 3 + 4 +  1 + 2 + 3 + 4 +

|--------------------------------|--------------------------------|
|--------------------------------|--------------------------------| (Measures widened
|10--10--10--10--10--10--10--10--|11--11--11--11--11--11--11--11--| to accomodate double
|--------------------------------|--------------------------------| digit frets)
 1   +   2   +   3   +   4   +    1   +   2   +   3   +   4   +

|--------------------------------|--------------------------------|
|--------------------------------|--------------------------------|
|10--10--10--10--10--10--10--10--|11--11--11--11--11--11--11--11--|
|--------------------------------|--------------------------------|
 1   +   2   +   3   +   4   +    1   +   2   +   3   +   4   +

|--------------------------------|--------------------------------|
|--------------------------------|--------------------------------|
|10--10--10--10--10--10--10--10--|13--13--13--13--13--13--13--13--|
|--------------------------------|--------------------------------|
 1   +   2   +   3   +   4   +    1   +   2   +   3   +   4   +

|----------------|----------------|----------------|----------------|
|----------------|----------------|----------------|----------------|
|6-6-6-6-6-6-6-6-|8-8-8-8-8-8-8-8-|5-3---3-----5---|3---3---3-------|
|----------------|----------------|----5-----5-----|--5-------5-3-5-|
 1 + 2 + 3 + 4 +  1 + 2 + 3 + 4 +  1 + 2 + 3 + 4 +  1 + 2 + 3 + 4 +

Short Bridge 1: (4 measure riff between Chorus 1 and Verse 3)

G:|----------------|----------------|----------------|----------------|
D:|----------------|----------------|----------------|----------------|
A:|5-3---3-----5---|3---3---3-------|5-3---3-----5---|3---3-----------|
E:|----5-----5-----|--5-------5-3-5-|----5-----5-----|--5-----5-3-5---|
   1 + 2 + 3 + 4 +  1 + 2 + 3 + 4 +  1 + 2 + 3 + 4 +  1 + 2 + 3 + 4 +

Verse 3: (Same as Verses 1 and 2)

G:|----------------|----------------|----------------|----------------|
D:|----------------|----------------|----------------|----------------|
A:|5-3---3-----5---|3---3---3-------|5-3---3-----5---|3---3---3-------|
E:|----5-----5-----|--5-------5-3-5-|----5-----5-----|--5-------5-3-5-|
   1 + 2 + 3 + 4 +  1 + 2 + 3 + 4 +  1 + 2 + 3 + 4 +  1 + 2 + 3 + 4 +

|----------------|----------------|----------------|----------------|
|----------------|----------------|----------------|----------------|
|5-3---3-----5---|3---3---3-------|5-3---3-----5---|3---3-----------|
|----5-----5-----|--5-------5-3-5-|----5-----5-----|--5-----5-3-5---|
 1 + 2 + 3 + 4 +  1 + 2 + 3 + 4 +  1 + 2 + 3 + 4 +  1 + 2 + 3 + 4 +

Prechorus 2: (Same as Verses)

G:|----------------|----------------|----------------|----------------|
D:|----------------|----------------|----------------|----------------|
A:|5-3---3-----5---|3---3---3-------|5-3---3-----5---|3---3---3-------|
E:|----5-----5-----|--5-------5-3-5-|----5-----5-----|--5-------5-3-5-|
   1 + 2 + 3 + 4 +  1 + 2 + 3 + 4 +  1 + 2 + 3 + 4 +  1 + 2 + 3 + 4 +

|----------------|----------------|----------------|----------------|
|----------------|----------------|----------------|----------------|
|5-3---3-----5---|3---3---3-------|5-3---3-----5---|3---3-----------|
|----5-----5-----|--5-------5-3-5-|----5-----5-----|--5-----5-3-5---|
 1 + 2 + 3 + 4 +  1 + 2 + 3 + 4 +  1 + 2 + 3 + 4 +  1 + 2 + 3 + 4 +

Chorus 2: (Ending different from Chorus 1)

G:|----------------|----------------|----------------|----------------|
D:|----------------|----------------|----------------|----------------|
A:|----------------|----------------|----------------|----------------|
E:|3-3-3-3-3-3-3-3-|4-4-4-4-4-4-4-4-|3-3-3-3-3-3-3-3-|4-4-4-4-4-4-4-4-|
   1 + 2 + 3 + 4 +  1 + 2 + 3 + 4 +  1 + 2 + 3 + 4 +  1 + 2 + 3 + 4 +

|----------------|----------------|----------------|----------------|
|----------------|----------------|----------------|----------------|
|----------------|----------------|6-6-6-6-6-6-6-6-|8-8-8-8-8-8-8-8-|
|3-3-3-3-3-3-3-3-|6-6-6-6-6-6-6-6-|----------------|----------------|
 1 + 2 + 3 + 4 +  1 + 2 + 3 + 4 +  1 + 2 + 3 + 4 +  1 + 2 + 3 + 4 +

|--------------------------------|--------------------------------|
|--------------------------------|--------------------------------|
|10--10--10--10--10--10--10--10--|11--11--11--11--11--11--11--11--|
|--------------------------------|--------------------------------|
 1   +   2   +   3   +   4   +    1   +   2   +   3   +   4   +

|--------------------------------|--------------------------------|
|--------------------------------|--------------------------------|
|10--10--10--10--10--10--10--10--|11--11--11--11--11--11--11--11--|
|--------------------------------|--------------------------------|
 1   +   2   +   3   +   4   +    1   +   2   +   3   +   4   +

|--------------------------------|--------------------------------|
|--------------------------------|--------------------------------|
|10--10--10--10--10--10--10--10--|13--13--13--13--13--13--13--13--|
|--------------------------------|--------------------------------|
 1   +   2   +   3   +   4   +    1   +   2   +   3   +   4   +

|----------------|----------------|----------------|----------------|
|----------------|----------------|----------------|----------------|
|6-6-6-6-6-6-6-6-|8-8-8-8-8-8-8-8-|5-3---3-----5---|3---3---3-------|
|----------------|----------------|----5-----5-----|--5-------5-3-5-|
 1 + 2 + 3 + 4 +  1 + 2 + 3 + 4 +  1 + 2 + 3 + 4 +  1 + 2 + 3 + 4 +

|----------------|----------------|----------------|----------------|
|----------------|----------------|----------------|----------------|
|5-3---3-----5---|3---3---3-------|5-3---3-----5---|3---3---3-------|
|----5-----5-----|--5-------5-3-5-|----5-----5-----|--5-------5-3-5-|
 1 + 2 + 3 + 4 +  1 + 2 + 3 + 4 +  1 + 2 + 3 + 4 +  1 + 2 + 3 + 4 +

|----------------|----------------|
|----------------|----------------|
|5-3---3-----5---|3---3-----------|
|----5-----5-----|--5-----5-3-5---|
 1 + 2 + 3 + 4 +  1 + 2 + 3 + 4 +

Bridge:

Bass mute during first 4 measures of Bridge, then:

G:|----------------|----------------|----------------|----------------|
D:|----------------|----------------|----------------|----------------|
A:|5-3---3-----5---|3---3---3-------|5-3---3-----5---|3---3---3-------|
E:|----5-----5-----|--5-------5-3-5-|----5-----5-----|--5-------5-3-5-|
   1 + 2 + 3 + 4 +  1 + 2 + 3 + 4 +  1 + 2 + 3 + 4 +  1 + 2 + 3 + 4 +

|----------------|----------------|----------------|----------------|
|----------------|----------------|----------------|----------------|
|5-3---3-----5---|3---3---3-------|5-3---3-----5---|3---3---3-------|
|----5-----5-----|--5-------5-3-5-|----5-----5-----|--5-------5-3-5-|
 1 + 2 + 3 + 4 +  1 + 2 + 3 + 4 +  1 + 2 + 3 + 4 +  1 + 2 + 3 + 4 +

|----------------|----------------|----------------|----------------|
|----------------|----------------|----------------|----------------|
|5-3---3-----5---|3---3---3-------|5-3---3-----5---|3---3---3-------|
|----5-----5-----|--5-------5-3-5-|----5-----5-----|--5-------5-3---|
 1 + 2 + 3 + 4 +  1 + 2 + 3 + 4 +  1 + 2 + 3 + 4 +  1 + 2 + 3 + 4 +

Outro:

 (Bass still mute from last measure)|
G:|----------------|----------------|----------------|----------------|
D:|----------------|----------------|----------------|----------------|
A:|----------------|----------------|5-3---3-----5---|3---3---3-------|
E:|----------------|----------------|----5-----5-----|--5-------5-3-5-|
   1 + 2 + 3 + 4 +  1 + 2 + 3 + 4 +  1 + 2 + 3 + 4 +  1 + 2 + 3 + 4 +

|----------------|----------------|----------------|----------------|
|----------------|----------------|----------------|----------------|
|5-3---3-----5---|3---3---3-------|5-3---3-----5---|3---3---3-------|
|----5-----5-----|--5-------5-3-5-|----5-----5-----|--5-------5-3-5-|
 1 + 2 + 3 + 4 +  1 + 2 + 3 + 4 +  1 + 2 + 3 + 4 +  1 + 2 + 3 + 4 +

|----------------|----------------|----------------|----------------|
|----------------|----------------|----------------|----------------|
|5-3---3-----5---|3---3---3-------|5-3---3-----5---|3---3---3-------|
|----5-----5-----|--5-------5-3-5-|----5-----5-----|--5-------5-3-5-|
 1 + 2 + 3 + 4 +  1 + 2 + 3 + 4 +  1 + 2 + 3 + 4 +  1 + 2 + 3 + 4 +

                                  (Sustain last note, then slide up an octave and hold)
|----------------|----------------|----------------|----------------|----|
|----------------|----------------|----------------|----------------|----|
|5-3---3-----5---|3---3---3-------|5~~~~~~~~~~~~~~~|~~~~~~~~~~~~////|17~~~
|----5-----5-----|--5-------5-3-5-|----------------|----------------|----|
 1 + 2 + 3 + 4 +  1 + 2 + 3 + 4 +  1 + 2 + 3 + 4 +  1 + 2 + 3 + 4 +  1 ....

Other versions of Get On Your Boots

Get on Your Boots (Ver. 2)Bass tabs

Almost there ...

Sign in to get your own page with links to favourite songs and more. You are just one click away...

Login with Facebook Login with Google