Search tabs and chords

Search for song, artist or band

Log in

One click and you are in

Login with Facebook Login with Google

Why sign up and log in

Guitar Tabs Explorer
U2 bass tabs for Every breaking wave

Bass tabs

Tuning: Standard

Intro:

G|-----------------------------------------------------------------|
D|-----------------------------------------------------------------|
A|-----------------4-4-4-4-4-4-4-4-7-7-7-7-7-7-7-7-----------------|
E|-5-5-5-5-5-5-5-5---------------------------------7-7-7-7-7-7-7-7-|

G|---------------------------------------------------------------------------------|
D|---------------------------------------------------------------------------------|
A|-----------------4-4-4-4-4-4-4-4-7-7-7-7-7-7-7-7---------------------------------|
E|-5-5-5-5-5-5-5-5---------------------------------7-7-7-7-7-7-7-7-7-7-7-7-7-7-7-7-|

Verse:

G|-----------------------------------------------------------------|x3
D|-----------------------------------------------------------------|
A|-----------------4-4-4-4-4-4-4-4-7-7-7-7-7-7-7-7-----------------|
E|-5-5-5-5-5-5-5-5---------------------------------7-7-7-7-7-7-7-7-|

G|---------------------------------------------------------------------------------|
D|---------------------------------------------------------------------------------|
A|-----------------4-4-4-4-4-4-4-4-7-7-7-7-7-7-7-7---------------------------------|
E|-5-5-5-5-5-5-5-5---------------------------------7-7-7-7-7-7-7-7-7-7-7-7-7-7-7-7-|

Chorus:

G|-----------------------------------------------------------------|x4
D|-----------------------------------------------------------------|
A|-----------------4-4-4-4-4-4-4-4-7-7-7-7-7-7-7-7-----------------|
E|-5-5-5-5-5-5-5-5---------------------------------7-7-7-7-7-7-7-7-|

Interlude:

G|------------------------------------|
D|------------------------------------|
A|----------4~~~~~~~-7~~~~~~~---------|
E|-5~~~~~~~-------------------7~~~~~~~|

Verse 2:

G|-----------------------------------------------------------------|x3
D|-----------------------------------------------------------------|
A|-----------------4-4-4-4-4-4-4-4-7-7-7-7-7-7-7-7-----------------|
E|-5-5-5-5-5-5-5-5---------------------------------7-7-7-7-7-7-7-7-|

G|---------------------------------------------------------------------------------|
D|---------------------------------------------------------------------------------|
A|-----------------4-4-4-4-4-4-4-4-7-7-7-7-7-7-7-7---------------------------------|
E|-5-5-5-5-5-5-5-5---------------------------------7-7-7-7-7-7-7-7-7-7-7-7-7-7-7-7-|

Bridge:

No Bass

Chorus:

G|-----------------------------------------------------------------|x4
D|-----------------------------------------------------------------|
A|-----------------4-4-4-4-4-4-4-4-7-7-7-7-7-7-7-7-----------------|
E|-5-5-5-5-5-5-5-5---------------------------------7-7-7-7-7-7-7-7-|

Outro:

G|------------------------------------| x2
D|------------------------------------|
A|----------4~~~~~~~-7~~~~~~~---------|
E|-5~~~~~~~-------------------7~~~~~~~|


This is it!
Enjoy! :)

Almost there ...

Sign in to get your own page with links to favourite songs and more. You are just one click away...

Login with Facebook Login with Google