Log in

One click and you are in

Login with Facebook Login with Google

Why sign up and log in

Guitar Tabs Explorer
U2 tabs for Elevation

Guitar tabs

Album: All that You Can't Leave Behind
As tabbed by Joe Muggah


Chorus                 end on
e----------------------|---------------------------------
B---------------10-10--|--12-12-12-12--10-10-------------
G-9-9--x-x-x-x---9--9--|--11-11-11-11---9--9-------------
D-9-9--x-x-x-x---7--7--|---9--9--9--9---7--7-------------
A-7-7--x-x-x-x---------|---------------------------------
E----------------------|---------------------------------
Verse
e--------------------------------------------------------
B--------------------------------------------------------
G--------------------------------------------------------
D-9-----7--------2------9-----7-------2------------------
A-x-----x--------x------x-----x-------x------------------
E-7-----5--------0------7-----5-------0------------------


Bridge 1
e--------0---------------5--------------------0----------
B----------0---------------5--------------------0--------
G------------1---------------6--6h7---------------1------
D-----2---------------7--------------------2-------------
A---2---------------7--------------------2---------------
E-0---------------5--------------------0-----------------

(continued)
e------------10-----------------10----------------5------
B---------------10-----------------10---------------5---5
G------------------11-----------------11--------------6--
D--------12------------------12----------------7---------
A-----12------------------12-----------------7-----------
E--10------------------10------------------5-------------

Bridge 2 (each hit 4 times)
e--------------------------------------------------------
B--------------------------------------------------------
G--------------------------------------------------------
D-14-14--13-13--12-12\---14-14--13-13--12-12\------------
A--x--x---x--x---x--x-----x--x---x--x---x--x-------------
E-12-12--11-11--10-10\---12-12--11-11--10-10\------------

(continued)
e--------------------------------------------------------
B--------------------------------------------------------
G--------------------------------------------------------
D-14-14--13-13--12-12--11-11--10--9-9--5--7-7-7-7--------
A--x--x---x--x---x--x---x--x---x--x-x--x--x-x-x-x--------
E-12-12--11-11--10-10---9--9---8--7-7--3--5-5-5-5--------


Outro
e--0-----------------------------------------------------
B--0-----------------------------------------------------
G--1-----------------------------------------------------
D--2-----------9------7--------2-------------------------
A--2-----------x------x--------x-------------------------
E--0-----------7------5--------0-------------------------


Chorus

Verse

Chorus

Verse

Chorus

Bridge 1

Verse

Bridge 2

Chorus

Outro
ⓘ Guitar tab for 'Elevation' by U2, a rock band formed in 1976 from Dublin, Ireland. U2 is known for their political rock/pop music.

Other versions of Elevation

Elevation liveTabs

Almost there ...

Sign in to get your own page with links to favourite songs and more. You are just one click away...

Login with Facebook Login with Google