Search tabs and chords

Search for song, artist or band

Log in

One click and you are in

Login with Facebook Login with Google

Why sign up and log in

Guitar Tabs Explorer
U2 guitar tabs for Elevation live

Guitar tabs

-------------------------------------------------------------------------------
			     ELEVATION LIVE - U2
-------------------------------------------------------------------------------
Tabbed by:Bono@paul Hewson

Pedals: Pod X3  and Wha

Tuning: Standard
Intro(Pod X3)
e|---------------------------------------------------------------------------|
B|---------------------------------------------------------------------------|
G|---------------------------------------------------------------------------|
D|-------------9--------------0-------------9---------------0----------------|
A|------------7-------------7----------------7------------7------------------|
E|---------------------------------------------------------------------------|

e|---------------------------------------------------------------------------|
B|---------------------------------------------------------------------------|
G|---------------------------------------------------------------------------|
D|---------------9-------------9--------------7---------7-----------7--------|
A|---------------7------------7---------------5--------5-----------5---------|
E|---------------------------------------------------------------------------|

e|---------------------------------------------------------------------------|
B|---------------------------------------------------------------------------|
G|---------------------------------------------------------------------------|
D|-----7---------9----------9------------7---------7----------7----------7---|
A|----5-----------7--------7------------5----------5-----------5----------5--|
E|---------------------------------------------------------------------------|
Verse(wah) 4 times
e|---------------------------------------------------------------------------|
B|---------------------------------------------------------------------------|
G|---------------------------------------------------------------------------|
D|-----------------------------------------------------9------9-----9--------|
A|------9-----9---------7------7-----7-------7-----7-------7-----------------|
E|------7----7-----------5------5------5-------------------------------------|
Choruse  4 times
e|---------------------------------------------------------------------------|
B|---------------------------------------------------------------------------|
G|---------------------------------------------------------------------------|
D|---------------------------------------------------------------------------|
A|-----9 9 9 9 9 9--------7 7 7 7 7------------------------------------------|
E|-----7  7 7 7 7 7-------5 5 5 5 5 -----------------------------------------|

e|---------------------------------------------------------------------------|
B|---------------------------------------------------------------------------|
G|---------------------------------------------------------------------------|
D|--------9 9 9 9 9 9 9  0---------------------------------------------------|
A|-------7 7 7 7 7 7 7-------------------------------------------------------|
E|---------------------------------------------------------------------------|
Solo
e|---------------------------------------------------------------------------|
B|---------------------------------------------------------------------------|
G|---------------------------------------------------------------------------|
D|-------14 14 14 14 14 14 14------------------------------------------------|
A|---------x -----x ---x ---x ---x ----x ---x -------------------------------|
E|-----12 12 12 12 12 12 12--------------------------------------------------|

e|---------------------------------------------------------------------------|
B|---------------------------------------------------------------------------|
G|---------------------------------------------------------------------------|
D|---------13 13 13 13 13 13-------------------------------------------------|
A|--------x ----x ----x ----x ----x ---x ------------------------------------|
E|------11 11 11 11 11 11----------------------------------------------------|
 then just go up the scale with the power chords.
e|---------------------------------------------------------------------------|
B|---------------------------------------------------------------------------|
G|---------------------------------------------------------------------------|
D|--------12 12 12 12 12-----------------------------------------------------|
A|----------x ----x ----x --x -----x ----------------------------------------|
E|------10 10 10 10 10-------------------------------------------------------|

then go back to the intro and play it until the music stops.


************************************

| /   slide up
| \   slide down
| h   hammer-on
| p   pull-off
| ~   vibrato
| +   harmonic
| x   Mute note
| b   Bend
| pb  Pre-bend
| br  Bend release
| pbr Pre-bend release
| brb Bend release bend

Almost there ...

Sign in to get your own page with links to favourite songs and more. You are just one click away...

Login with Facebook Login with Google