Search tabs and chords

Search for song, artist or band

Log in

One click and you are in

Login with Facebook Login with Google

Why sign up and log in

Guitar Tabs Explorer
U2 guitar tabs for Electrical storm

Guitar tabs with lyrics

electric guitars)
Album: Greatest Hits 1990-200
Tabbed by: Brandon Beasley, b-beasley@excite.com
This is a great new U2 tune. There is more than one version too. I tabbed
the most widely played one, which is also the one I like most.
_______________________________________________________________________________
_______
==Intro/Verse==
Verse/Intro Rhythm Guitar (Bono) Chords:
A chord diagramF#5F#5 A chord diagramA5A5 A chord diagramE5E5 A chord diagramB5B5

Lead Lick(Edge) at Start (2 times):
e|------------------------------------------------------|
B|------------------------------------------------------|
G|--/16-14--9-11-9h11-9h11--/16-\14---------------------|
D|------------------------------------------------------|
A|------------------------------------------------------|
E|------------------------------------------------------|
Then, Lead Guitar Verse Riff ("The sea it swells, like a sore head..."):
e|-----9------9-------------7------7------------------------|
B|---7------7------7------5------4-----4--------------------|
G|-6------6------6------4------4------4---------------------|
D|----------------------------------------------------------|
A|----------------------------------------------------------|
E|----------------------------------------------------------|
Louder Part of Verse ("It's in my mind, all of the time...")
A chord diagramA5A5 A chord diagramB5B5 A chord diagramE5E5 A chord diagramC#5C#5 A chord diagramD5D5 (repeat)
Then for Verse 2 its the exact same thing that is
above, just without the Rhythm Guitar Chords.
==CHORUS==
This is the part where Bono sings: "Electrical Stoooooormmm...."
Chords:
Ryhthm Guitar(Bono) plays:
A chord diagramD5D5 A chord diagramE5E5 A chord diagramF#5F#5 A chord diagramA5A5 (after that is played 3x, play A chord diagramB5B5 until it stops)
Riff:
Its just 2 notes with alot of sustain:
e|---------------|
B|---------------|
G|-/11---\6------|
D|---------------|
A|---------------|
E|---------------|
Then Edge plays a modification of the opening riff:
e|------------------------------------------------------|
B|------------------------------------------------------|
G|--/16-14--9-11-9h11-9h11--/16-\14--13-14-11-----------|
D|------------------------------------------------------|
A|------------------------------------------------------|
E|------------------------------------------------------|

Back to Verse, but again with out Rhythm Guitar

Then Chorus Again
then..
==BRIDGE==
Rhythm and Lead Plays:
F5(at the 8th fret, not 1st) A chord diagramC5C5 (only once)
==OUTRO==

Rhythm plays: A chord diagramE5E5 A chord diagramA5A5 ...until the end
Guitar Solo:
Part One (play this 5 times, while Bono sings, "baby don't cry..."):
e|-------------------------|
B|-------------------------|
G|--11--9--7--6h7p6--4--2--|
D|-------------------------|
A|-------------------------|
E|-------------------------|
Part Two (by itself):
Im not too good at figuiring out solos, unless they are
easy (like the one above), so all I can say about the
second part of the solo is that it is anascending
version of the one above, that goes higher, and finishes on:
e|---------------------------------------------------|
B|-19--18--19--18--19--18--19--18--19--21--21--21~---|
G|---------------------------------------------------|
D|---------------------------------------------------|
A|---------------------------------------------------|
E|---------------------------------------------------|
End on A chord diagramE5E5

Other versions of Electrical Storm

Electrical stormChords
Electrical storm acousticChords

Almost there ...

Sign in to get your own page with links to favourite songs and more. You are just one click away...

Login with Facebook Login with Google