Search tabs and chords

Search for song, artist or band

Log in

One click and you are in

Login with Facebook Login with Google

Why sign up and log in

Guitar Tabs Explorer
U2 bass tabs for Electrical storm

Bass tabs

Tuning: Standard (E A D G)

Key: A

Difficulty: Intermediate

Intro - No Bass:
Verse:

G|----------------|----------------|----------------|----------------|
D|----------------|----------------|----------------|----------------|
A|------0---------|------2---------|------0---------|------2---------|
E|2---------------|0---------------|2---------------|0---------------|

G|----------------|----------------|----------------|----------------|
D|----------------|----------------|----------------|----------------|
A|------0---------|------2---------|------0---------|------2---------|
E|2---------------|0---------------|2---------------|0---------------|

G|----------------|----------------|----------------|----------------|
D|----------------|----------------|----------------|----------------|
A|------0---------|------2---------|------0---------|------2---------|
E|2---------------|0---------------|2---------------|0---------------|

G|----------------|----------------|
D|----------------|----------------|
A|------0---------|------2---------|
E|2---------------|0---------------|


Chorus:

G|----------------|----------------|----------------|----------------|
D|----------------|----------------|----------------|----------------|
A|------0---------|------2---2-2---|------0---------|------2---2-2---|
E|2---------------|0-------------0-|2---------------|0-------------0-|

G|----------------|----------------|----------------|----------------|
D|----------------|----------------|----------------|----------------|
A|------0---------|------2---2-2---|------0---------|------2---2-2---|
E|2---------------|0-------------0-|2---------------|0-------------0-|

G|----------------|----------------|----------------|----------------|
D|----------------|----------------|----------------|----------------|
A|------0---------|------2---2-2---|------0---------|------2---2-2---|
E|2---------------|0-------------0-|2---------------|0-------------0-|

G|----------------|----------------|----------------|----------------|
D|----------------|----------------|----------------|----------------|
A|------0---------|------2---2-2---|------0---------|------2---2-2---|
E|2---------------|0-------------0-|2---------------|0-------------0-|

Verse:

G|----------------|----------------|----------------|----------------|
D|----------------|----------------|----------------|----------------|
A|------0-----0---|------2-----2---|------0-----0---|------2-----2---|
E|2---------------|0-0-------------|2---------------|0-0-------------|

G|----------------|----------------|----------------|----------------|
D|----------------|----------------|----------------|----------------|
A|------0-----0---|------2-----2---|------0-----0---|------2-----2---|
E|2---------------|0-0-------------|2---------------|0-0-------------|

G|----------------|----------------|----------------|----------------|
D|----------------|----------------|----------------|----------------|
A|------0-----0---|------2-----2---|------0-----0---|------2-----2---|
E|2---------------|0-0-------------|2---------------|0-0-------------|


Chorus:

G|----------------|----------------|----------------|----------------|
D|----------------|------7---------|----------------|----------------|
A|5-5-5-5---5-5-5-|7-7-7-----0-0-0-|4-4-4-4---4-4-4-|5-5-5-5---5-5-5-|
E|----------------|----------------|----------------|----------------|

G|----------------|----------------|----------------|----------------|
D|----------------|------7---------|----------------|----------------|
A|5-5-5-5---5-5-5-|7-7-7-----0-0-0-|4-4-4-4---4-4-4-|5-5-5-5---5-5-5-|
E|----------------|----------------|----------------|----------------|

G|----------------|--------------------|----------------|--------------------|
D|----------------|--------------------|----------------|--------------------|
A|5-5-5-7---7-7-7-|9-9-9-12---12-12-12-|5-5-5-7---7-7-7-|9-9-9-12---12-12-12-|
E|----------------|--------------------|----------------|--------------------|

G|----------------|--------------------|----------------|----------------|
D|----------------|--------------------|9---------------|----------------|
A|5-5-5-7---7-7-7-|9-9-9-12---12-12-12-|----------------|----------------|
E|----------------|--------------------|--7-7-7---7-7-7-|7-7-7-7---7-7-7-|


Interlude - No Bass:


Verse:

G|----------------|----------------|----------------|----------------|
D|----------------|----------------|----------------|----------------|
A|------0-----0---|------2-----2---|------0-----0---|------2-----2---|
E|2---------------|0-0-------------|2---------------|0-0-------------|

G|----------------|----------------|----------------|----------------|
D|----------------|----------------|----------------|----------------|
A|------0-----0---|------2-----2---|------0-----0---|------2-2-2-2-2-|
E|2---------------|0-0-------------|2---------------|0-0-0-----------|


Chorus:

G|----------------|----------------|----------------|----------------|
D|----------------|------7---------|----------------|----------------|
A|5-5-5-5---5-5-5-|7-7-7-----0-0-0-|4-4-4-4---4-4-4-|5-5-5-5---5-5-5-|
E|----------------|----------------|----------------|----------------|

G|----------------|----------------|----------------|----------------|
D|----------------|------7---------|----------------|----------------|
A|5-5-5-5---5-5-5-|7-7-7-----0-0-0-|4-4-4-4---4-4-4-|5-5-5-5---5-5-5-|
E|----------------|----------------|----------------|----------------|

G|----------------|--------------------|----------------|--------------------|
D|----------------|--------------------|----------------|--------------------|
A|5-5-5-7---7-7-7-|9-9-9-12---12-12-12-|5-5-5-7---7-7-7-|9-9-9-12---12-12-12-|
E|----------------|--------------------|----------------|--------------------|

G|----------------|--------------------|
D|----------------|--------------------|
A|5-5-5-7---7-7-7-|9-9-9-12---12-12-12-|
E|----------------|--------------------|


Bridge:

G|----------------|----------------|----------------|----------------|
D|----------------|----------------|----------------|----------------|
A|2-222-22-22-222-|2-222-22-22-222-|----------------|3-333-33-33-333-|
E|----------------|----------------|1-111-11-11-111-|----------------|


Outro:

G|--------------2-|----------------|--------------2-|----------------|
D|2-2-2-2-2-2-2---|----------------|2-2-2-2-2-2-2---|----------------|
A|----------------|0-0-0-0-0-0-0-2-|----------------|0-0-0-0-0-0-0-2-|
E|----------------|----------------|----------------|----------------|

G|--------------2-|----------------|--------------2-|----------------|
D|2-2-2-2-2-2-2---|----------------|2-2-2-2-2-2-2---|----------------|
A|----------------|0-0-0-0-0-0-0-2-|----------------|0-0-0-0-0-0-0-2-|
E|----------------|----------------|----------------|----------------|

G|--------------2-|----------------|--------------2-|----------------|
D|2-2-2-2-2-2-2---|----------------|2-2-2-2-2-2-2---|----------------|
A|----------------|0-0-0-0-0-0-0-2-|----------------|0-0-0-0-0-0-0-2-|
E|----------------|----------------|----------------|----------------|

G|--------------2-|----------------|--------------2-|----------------|----------------|
D|2-2-2-2-2-2-2---|----------------|2-2-2-2-2-2-2---|----------------|----------------|
A|----------------|0-0-0-0-0-0-0-2-|----------------|0-0-0-0-0-0-0-2-|----------------|
E|----------------|----------------|----------------|----------------|0---------------|

Almost there ...

Sign in to get your own page with links to favourite songs and more. You are just one click away...

Login with Facebook Login with Google