Log in

One click and you are in

Login with Facebook Login with Google

Why sign up and log in

Guitar Tabs Explorer
U2 guitar tabs for Discotheque

Guitar tabs with lyrics

U2- Discotheque
	POP

          Intro:
       You can reach.....
d|-------------------------
a|--2-2-0-2-0-2-2-0-2
e|--------------------------

	Main Riff

d|----------------------------------------------
a|-5----------7----------5--------------------
e|----7-5-7----7-5-7-----7-5-7--7-7-5-7
	Bridge  ( with delay )

e|---------------5-7-5
b|--------7------------
g|-4--7-----7--------

When Bono starts singing " Haaaaa, Haaaaaa" after the second bridge (
Just before BOOM CHA thing) I play:

e|----5--7----5--7
b|-7--------7------
g|-------------------

	The outro is the same thing as the intro.

It's not too hard.  If you have questions, comments or improvments e-mail
me.

Taylor DePamphilis      &:9   -elvis
tay1@Juno.com






                           DISCOTHEQUE by U2
                       =======================


Intro:

(1.Riff)


e------------------------------------|
B------------------------------------|
G------------------------------------|  reapeat a few times,then
D------------------------------------|
A------------------------------------|
E--7--7--5h7--5h7-7---5h7--5h7-7-----|

2.Part:

e---------------------------------------------------------|
B---------------------------------------------------------|
G---------------------------------------------------------|
D---------------------------------------------------------|
A--------------5b-----------------------5b----------------|
E--7--7--5h7--5--7---5h7--5h7-7---5h7-5----7--5h7-5h7--7--|


Verse1:

(with 1.Riff but without 2.Part of it)


              A chord diagramB5B5     A chord diagramG5G5                      A chord diagramB5B5    A chord diagramG5G5

You can ..

          A chord diagramB5B5               A chord diagramG5G5                A chord diagramB5B5       A chord diagramG5G5

You ..

          A chord diagramB5B5    A chord diagramG5G5                      A chord diagramB5B5        A chord diagramG5G5

You ..it

      A chord diagramB5B5                 A chord diagramG5G5                   A chord diagramB5B5       A chord diagramG5G5

Circulate..it



Pre-Chorus:


    A chord diagramB5B5                       A chord diagramG5G5

You ..

       A chord diagramB5B5                       A chord diagramG5G5

You ..

       A chord diagramB5B5              A chord diagramG5G5          A chord diagramB5B5            A chord diagramG5G5

You ..


2.Riff:

e----------------------------------------------|
B----------------------------------------------|
G----------------------------------------------|  reapeat twice
D----------------------------------------------|
A---5---------7---------5----------------------|
E-----7-5-7-----7-5-7-----7-5-7--x-x-5-7-5-----|


Verse2:

(with 2.Riff)

           A chord diagramB5B5        A chord diagramG5G5              A chord diagramB5B5          A chord diagramG5G5

You ..

             A chord diagramB5B5                        A chord diagramG5G5

Yeah..

                    A chord diagramB5B5         A chord diagramG5G5

You ..



Chorus:


A chord diagramB5B5                A chord diagramG5G5

Let ..

A chord diagramB5B5            A chord diagramG5G5

Discotheque    ..
                                I'm not sure about this part
A chord diagramB5B5            A chord diagramG5G5

Go go ..

A chord diagramB5B5                 A chord diagramG5G5

Discotheque



Bridge:

A chord diagramD5D5      D/C#      A chord diagramE5E5

Looking ..

A chord diagramD5D5      D/C#           A chord diagramE5E5

 But ..

A chord diagramD5D5      D/C#        A chord diagramE5E5

You ..

    A chord diagramD5D5       D/C#        A chord diagramE5E5

The ..


In this part I usually pick trough the A chord diagramB minorBm and A chord diagramE MajorE chords.
I'll try to figure out how it's done on the CD in the next time.


After this part the 2.Riff is played again. (with heavy fuzz)


Verse3:

            A chord diagramB5B5      A chord diagramG5G5           A chord diagramB5B5         A chord diagramG5G5

It's ..

          A chord diagramB5B5                      A chord diagramG5G5

It's ..,

                  A chord diagramB5B5          A chord diagramG5G5

'cause ..


Then the Pre-Chorus again:


    A chord diagramB5B5                       A chord diagramG5G5

You ..

       A chord diagramB5B5                       A chord diagramG5G5

You ..

       A chord diagramB5B5              A chord diagramG5G5          A chord diagramB5B5            A chord diagramG5G5

You ..


Chorus:


A chord diagramB5B5                A chord diagramG5G5

Let ..
A chord diagramB5B5            A chord diagramG5G5

Discotheque    ..

A chord diagramB5B5            A chord diagramG5G5

Go ..

A chord diagramB5B5                 A chord diagramG5G5

Discotheque


Bridge:

A chord diagramD5D5      D/C#      A chord diagramE5E5

Looking ..D5      D/C#           A chord diagramE5E5

 But ..

A chord diagramD5D5      D/C#        A chord diagramE5E5

You ..

    A chord diagramD5D5       D/C#        A chord diagramE5E5

The ..


Now again the A chord diagramB minorBm and A chord diagramE MajorE stuff.


When I play the song I never use the same ending as on
the CD because I think it sounds not very good and I also
have no idea how I should play it with my guitar. I normally
let it fade out on A chord diagramB minorBm and E. You must try what kind of

ending is the best one for you.

Have fun


Lukas                            e-mail: wiesboeck@adis.at

Almost there ...

Sign in to get your own page with links to favourite songs and more. You are just one click away...

Login with Facebook Login with Google