Search tabs and chords

Search for song, artist or band

Log in

One click and you are in

Login with Facebook Login with Google

Why sign up and log in

Guitar Tabs Explorer
U2 guitar tabs for Disappearing act

Intro

U2 DISAPPEARING ACT
Tab by Mauro Conte.

Standard tuning, 103bpm, main delay at 437ms; you can add another one at 295ms but with lower volume.
[Intro Chords]

e|---6---6---------------------------6---6--------------------------|
B|--6---6-----6---6------13----13---6---6-----6---6--------6---6----|
G|-3---3-----5---5-----12-----12---3---3-----5---5---5----5---5---5-|
D|----------3---3----10-----10--------------3---3---3----3---3---3--|
A|------------------------------------------------------------------|
E|------------------------------------------------------------------|


[First Riff]

(0'28")

e|-------------------------------------|
B|-11-11---10-10---11-11---15----18-18-|
G|-------------------------------------|
D|-------------------------------------|
A|-------------------------------------|
E|-------------------------------------|

(At 0'46")

e|---------------------------------------------------|
B|---4---4--------3---3--------3---3--------3---3----|
G|--3---3---3----3---3---3----3---3---3----5---5---5-|
D|-3---3---3----3---3---3----5---5---5----5---5---5--|
A|---------------------------------------------------|
E|---------------------------------------------------|

[Harmonics part]

(0'55")

e|--------------------------------------------|
B|------------------------------------------6-|
G|-(12)---------(12)-(12)---------(7)-------5-|
D|------(12)--------------(12)--------(7)---3-|
A|--------------------------------------------|
E|--------------------------------------------|

(only here at 1'13")

e|------------------10------------------------|
B|---------------------8--------------------6-|
G|-(12)----------7----------------(7)-------5-|
D|------(12)--------------------------(7)---3-|
A|--------------------------------------------|
E|--------------------------------------------|


[Refrain Chords]

(1'22")

e|-6---6----8-----8------8---8----6---6----6---6---|
B|--6---6----10----10-----8---8----8---8----6---6--|
G|---7---7-----10----10----8---8----8---8----7---7-|
D|-------------------------------------------------|
A|-------------------------------------------------|
E|-------------------------------------------------|

(then at 1'55")

e|--6------6-------8--------6------6------6-------8--------6------6---6---6---|
B|---8------6-------10-------6------8------6-------10-------6------8---8---8--|
G|8---8--7---7--10----10--7---7--8---8--7---7--10----10--7---7--8---8---8---8-|
D|----------------------------------------------------------------------------|
A|----------------------------------------------------------------------------|
E|----------------------------------------------------------------------------|


[Second Riff]

(2'08")

e|-------------------------------------------------|
B|-8-8-8-8---15-15-15-15---11-11-10-10----18-18-18-|
G|-------------------------------------------------|
D|-------------------------------------------------|
A|-------------------------------------------------|
E|-------------------------------------------------|

Now repeat the arpeggio at 0:46, then harmonics (except the part at 1:13) and the refrain.

Now you have to play the last riff (3'40"):

e|--------------------------------------------------------------------------|
B|-11-11-11-11-10-10-11-11-11-----15-15-15-15-16-15-15---18-18-18--20-20-20-|
G|--------------------------------------------------------------------------|
D|--------------------------------------------------------------------------|
A|--------------------------------------------------------------------------|
E|--------------------------------------------------------------------------|

e|---------------------------------------------------|
B|---4---4--------3---3--------3---3--------3---3----|
G|--3---3---3----3---3---3----3---3---3----5---5---5-|
D|-3---3---3----3---3---3----5---5---5----5---5---5--|
A|---------------------------------------------------|
E|---------------------------------------------------|


***********************************
| (n) Harmonic

Almost there ...

Sign in to get your own page with links to favourite songs and more. You are just one click away...

Login with Facebook Login with Google