Search tabs and chords

Search for song, artist or band

Log in

One click and you are in

Login with Facebook Login with Google

Why sign up and log in

Guitar Tabs Explorer
U2 bass tabs for Desire

Bass tabs

Tune down 1/2 step to: Eb Ab Db Gb
~ = let ring
/ = slide up
G|------------------|-------------------------------|
D|:-----------------|-------------------------------|
A|:--5--------------|-------------------------------|
E|------5--0---5--0-|-5-/10--5--0---5--0--5-/10-etc.|
__________________/ ____________________/
         |                       |
Only the beginning           Main X 7

Play the part that says: ‘only the beginning’ once and the part that says
‘Main’ is the Main tab that Adam plays almost during the whole song. (Don’t forget the
slide from -5- to -10- each time you play the main)

Play Main part 7 times, then play:

G|--------------------------------|
D|:-------------------------------|
A|:--5---5---5-5-5----------------|
E|------------------5---5---5-5-5-|
_________________________________/
                |
             Chorus - Play once

Then you slide back to the main again and you play the main 10 times

Chorus - 1 time

Main - 4 times

Chorus - 1 time

Main - 4 times

Then play

G|-------------------------------|---------------------------|
D|:------------------------------|---------------------------|
A|:-5---5---5-5-5----------------|-5---5---5-5-5--5---7---2~-|
E|-----------------5---5---5-5-5-|---------------------------|

Then play

G|--------------------|
D|:-------------------|
A|:--5----------------| 4 times
E|------5--0---5--0-5-|

Then you slide back to the main again and you play the main 10 times

Chorus - 1 time

Main - 17 times

Finish on:

G|------------|
D|:-----------|
A|:--5--------|
E|------5--0~-|

Almost there ...

Sign in to get your own page with links to favourite songs and more. You are just one click away...

Login with Facebook Login with Google