Search tabs and chords

Search for song, artist or band

Log in

One click and you are in

Login with Facebook Login with Google

Why sign up and log in

Guitar Tabs Explorer
U2 bass tabs for Deep in the heart

Bass tabs

Tuning: Standard (E A D G)

Difficulty: Novice

Intro:
(00:24)
G|--------------|--------------|--------------|----------------|
D|---3----------|---3----------|-5---3--5--5--|---------3-5-5--|
A|-5---5--5--5-0|-3---5--3--3-0|---5---------5|---0-3-5-------5|
E|--------------|--------------|--------------|-3--------------|

G|--------------|--------------|--------------|----------------|
D|-----3--------|---3----------|-5---3--5--5--|---------3-5-5--|
A|-5-3----5--5-0|-3---5--3--3-0|---5---------5|---0-3-5-------5|
E|--------------|--------------|--------------|-3--------------|

G|--------------|--------------|--------------|----------------|
D|-----3--------|---3----------|-5---3--5--5--|---------3-5-5--|
A|-5-3----5--5-0|-3---5--3--3-0|---5---------5|---0-3-5-------5|
E|--------------|--------------|--------------|-3--------------|

G|--------------|-------------|--------------|----------------|
D|-----3--------|---3---------|-5---3--5--5--|---------3-5-5--|
A|-5-3----5--5-0|-3---5--3--3-|---5---------5|---0-3-5-------5|
E|--------------|-------------|--------------|-3--------------|

Verse 1/Pre-Chorus:
G|------------|------------|--------------|---------------|
D|-----3------|---3--------|-3-5-0--5--5--|---------3-0-5-|
A|-5-3----5---|-3---5--3---|-------------5|---0-3-5-------|
E|------------|------------|--------------|-3-------------|

G|------------|------------|------------|---------------|
D|-----3------|---3--------|-5---3--5---|---------3-0-5-|
A|-5-3----5---|-3---5--3---|---5--------|---5-3-5-------|
E|------------|------------|------------|-3-------------|

G|------------|------------|------------|-------------|
D|-----3------|-----3------|-5---3--5---|-------------|
A|-5-3----5---|-3-5----3---|---5--------|---0-3-5-r---|
E|------------|------------|------------|-3-----------|

Chorus:
G|-----------|-----------|-----------|-------------|
D|-----------|-----------|-----------|-------------|
A|-5--5--5---|-3--3--3---|-----------|-------------|
E|-----------|-----------|-3----3-r--|-3-3--3-3--3-|

G|------------|------------|-------------|---------------|
D|-----3------|---3--------|-5---3--5-r--|---------3-5-5-|
A|-5-3----5---|-3---5--3---|---5---------|---0-3-5-------|
E|------------|------------|-------------|-3-------------|

G|------------|------------|-------------|---------------|
D|-----3------|------------|-5---3--5-r--|---------3-5-5-|
A|-5-3----5---|-5-3-3--3---|---5---------|---5-3-5-------|
E|------------|------------|-------------|-3-------------|

G|------------|------------|------------|---------------|
D|-----3------|------------|-5---3--5---|---------3-5-5-|
A|-5-3----5---|-5-3-3--3---|---5--------|---5-3-5-------|
E|------------|------------|------------|-3-------------|

G|------------|------------|------------|---------------|
D|-----3------|---3--------|-5---3--5---|---------3-5-5-|
A|-5-3----5---|-3---5--3---|---5--------|---5-3-5-------|
E|------------|------------|------------|-3-------------|

G|------------|------------|------------|---------------|
D|-----3------|---3--------|-5---3--5---|---------3-5-5-|
A|-5-3----5---|-3---5--3---|---5--------|---0-3-5-------|
E|------------|------------|------------|-3-------------|

G|------------|------------|-----------|---------------|
D|-----3------|---3--------|-x--5--5---|---------3-5-5-|
A|-5-3----5---|-3---5--3---|-----------|---0-3-5-------|
E|------------|------------|-----------|-3-------------|

G|------------|------------|---------|--------|
D|------------|------------|---------|--------|
A|-5-0-3--3---|-3-3-3--3---|---------|--------|
E|------------|------------|-3-------|--------|

Interlude:
G|------------|------------|------------|----------------|
D|---3--------|------------|-5---3--5---|---------3-5-5--|
A|-5---5--5---|-3-3-3--3---|---5--------|---0-3-5-------5|
E|------------|------------|------------|-3--------------|

G|------------|------------|---------|-----------|
D|-----3------|-----3------|---------|-----------|
A|-5-3----5---|-5-3----3---|---------|-----------|
E|------------|------------|-3-------|-----3-3-r-|

G|------------|------------|-------------|----------------|
D|-----3------|---3--------|-5---3--5-r--|---------3-5-5--|
A|-5-3----5---|-3---5--3---|---5---------|---0-3-5-------5|
E|------------|------------|-------------|-3--------------|

Verse 2:
G|------------|------------|------------|---------------| (x3)
D|-----3------|---3--------|-5---3--5---|---------3-5-5-|
A|-5-3----5---|-3---5--3---|---5--------|---0-3-5-------|
E|------------|------------|------------|-3-------------|

G|------------|------------|------------|---------------|
D|---3--------|---3--------|-5---3--5---|---------3-5-5-|
A|-5---5--5---|-3---5--3---|---5--------|---0-3-5-------|
E|------------|------------|------------|-3-------------|

G|------------|------------|------------|----------------|
D|-----3------|---3--------|-5---3--5---|---------3-5-5--|
A|-5-3----5---|-3---5--3---|---5--------|---0-3-5-------5|
E|------------|------------|------------|-3--------------|

G|------------|------------|------------|----------------|
D|-----3------|---3--------|-5---3--5---|---------3-5-5--|
A|-5-3----5---|-3---5--3---|---5--------|---0-3-5-------5|
E|------------|------------|------------|-3--------------|

G|------------|------------|------------|----------------|
D|-----3------|---3--------|-5---3--5---|---------3-5-5-5|
A|-5-3----5---|-3---5--3---|---5--------|---0-3-5--------|
E|------------|------------|------------|-3--------------|

G|------------|------------|------------|---------------|
D|-----3------|---3--------|-5---3--5---|---------3-5-5-|
A|-5-3----5---|-3---5--3---|---5--------|---0-3-5-------|
E|------------|------------|------------|-3-------------|

G|------------|------------|---------------|----------------|
D|-----3------|---3--------|-5--5-5-5-5-5--|---------3-5-5--|
A|-5-3----5---|-3---5--3---|--------------5|---0-3-5-------5|
E|------------|------------|---------------|-3--------------|

Interlude:
G|------------|------------|------------|----------------|
D|-----3------|---3--------|-5---3--5---|---------3-5-5--|
A|-5-3----5---|-3---5--3---|---5--------|---0-3-5-------5|
E|------------|------------|------------|-3--------------|

G|------------|------------|------------|----------------|
D|-5---3------|---3--------|-5---3--5---|---------3-5-5-5|
A|---5----5---|-3---5--3---|---5--------|---0-3-5--------|
E|------------|------------|------------|-3--------------|

G|-----------|------------|------------|----------------|
D|----3------|---3--------|-5---3--5---|---------3-5-5--|
A|-5-----5---|-3---5--3---|---5--------|---0-3-5-------5|
E|-----------|------------|------------|-3--------------|

G|------------|------------|---------|----------|------------------------|---------------------|
D|------------|---3--------|-3-------|-------3-/|-15-15-15-15-15-15-15-15|-15-15-15-15-15-15---|
A|-5-5-3--5---|-3---5--3---|---------|----------|------------------------|-------------------0-|
E|------------|------------|---------|----------|------------------------|---------------------|

Outro:
G|--------------|--------------|--------------|----------------|
D|---3----------|---3----------|-5---3--5--5--|---------3-5-5--|
A|-5---5--5--5-0|-3---5--3--3-0|---5---------5|---0-3-5-------5|
E|--------------|--------------|--------------|-3--------------|

G|--------------|--------------|--------------|----------------|
D|-----3--------|---3----------|-5---3--5--5--|---------3-5-5--|
A|-5-3----5--5-0|-3---5--3--3-0|---5---------5|---0-3-5-------5|
E|--------------|--------------|--------------|-3--------------|

G|--------------|--------------|--------------|----------------|
D|-----3--------|---3----------|-5---3--5--5--|---------3-5-5--|
A|-5-3----5--5-0|-3---5--3--3-0|---5---------5|---0-3-5-------5|
E|--------------|--------------|--------------|-3--------------|

                                                    (fade out)
G|--------------|-------------|--------------|----------------|
D|-----3--------|---3---------|-5---3--5--5--|---------3-5-5--|
A|-5-3----5--5-0|-3---5--3--3-|---5---------5|---0-3-5-------5|
E|--------------|-------------|--------------|-3--------------|


***********************************

| / Slide up
| r Rest
| x Dead note

***********************************

Almost there ...

Sign in to get your own page with links to favourite songs and more. You are just one click away...

Login with Facebook Login with Google