Search tabs and chords

Search for song, artist or band

Log in

One click and you are in

Login with Facebook Login with Google

Why sign up and log in

Guitar Tabs Explorer
U2 bass tabs for Daddys gonna pay for your crashed car

Daddys Gonna Pay For Your Crashed Car bass tab by U2

U2 bass tabs for Daddys gonna pay for your crashed car

Bass tabs

Tuning: Half-Step Down (D# G# C# F#)

Key: Ab

Difficulty: Novice

Intro:
Gb|---------------------------------|
Db|---------------------------------|
Ab|---------------------------------|
Eb|-------------------------5-3-5---|

Gb|---------------------------------|
Db|---------------------------------|
Ab|---------------------------------|
Eb|-3-------5-3-----5-3-----5-3-5---| x11

Verse 1:
"Your'e a precious stone..."
Gb|---------------------------------|---------------------------------|
Db|---------------------------------|---------------------------------|
Ab|---------------------------------|-------------------7---5---3-----|
Eb|-3-5-------------3-5-----------3-|-3-5---------------------------3-| x3

Gb|---------------------------------|---------------------------------|
Db|---------------------------------|-------------------------------5-|
Ab|---------------------------------|-------------------7---5---3-----|
Eb|-3-5-------------3-5-----------3-|-3-5-----------------------------|

Chorus:
"Ah-ha, sha-la..."
Gb|---------------------------------|
Db|-7-----------------------------5-|
Ab|-------------------7---5---3-----|
Eb|-----5---------------------------| x3

Gb|---------------------------------|
Db|-7-------------------------------|
Ab|-------------------7---5---3-----|
Eb|-----5-------------------------3-|

Pre-Verse:
Gb|---------------------------------|
Db|---------------------------------|
Ab|---------------------------------|
Eb|-3-5-------------3-5-----------3-|

Verse 2:
"A little uptight..."
Gb|---------------------------------|---------------------------------|
Db|---------------------------------|---------------------------------|
Ab|-------------------7---5---3-----|---------------------------------|
Eb|-3-5---------------------------3-|-3-5-------------3-5-----------3-| x3

Gb|---------------------------------|---------------------------------|
Db|---------------------------------|-------------------------------5-|
Ab|-------------------7---5---3-----|---------------------------------|
Eb|-3-5---------------------------3-|-3-5-------------3-5-------------|

Chorus:
"Ah-ha, sha-la..."
Gb|---------------------------------|
Db|-7-----------------------------5-|
Ab|-------------------7---5---3-----|
Eb|-----5---------------------------| x6

Gb|---------------------------------|
Db|-7-------------------------------|
Ab|---------------------------------|
Eb|---------------------------------|

Pre-Verse:
Gb|---------------------------------|
Db|---------------------------------|
Ab|---------------------------------|
Eb|-3-------5-3-----5-3-----5-3-5---| x2

Verse 3:
"You've got a head full of traffic..."
Gb|---------------------------------|
Db|---------------------------------|
Ab|---------------------------------|
Eb|-3-------5-3-----5-3-----5-3-5---| x4

Gb|---------------------------------|
Db|---------------------------------|
Ab|-5-5-3-5---5---3-5-5-3-5-------3-|
Eb|---------------------------3-5---|

Gb|---------------------------------|
Db|---------------------------------|
Ab|-5-5-3-5---5---3-5-5-3-5---------|
Eb|---------------------------3-5-3-|

Gb|---------------------------------|
Db|---------------------------------|
Ab|---------------------------------|
Eb|-5-5-3-5---5---3-5-5-3-5---3-5-3-|

Gb|---------------------------------|
Db|-------------------------------5-|
Ab|---------------------------------|
Eb|-5-5-3-5---5---3-5-5-3-5---3-----|

Outro:
"Ah-ha, sha-la..."
Gb|---------------------------------|
Db|-7-----------------------------5-|
Ab|-------------------7---5---3-----|
Eb|-----5---------------------------| x14

Gb|---------------------------------|
Db|-7-------------------------------|
Ab|-------------------7---5---------|
Eb|-----5---------------------------|

************************************

| b  Bend

************************************

Almost there ...

Sign in to get your own page with links to favourite songs and more. You are just one click away...

Login with Facebook Login with Google