Search tabs and chords

Search for song, artist or band

Log in

One click and you are in

Login with Facebook Login with Google

Why sign up and log in

Guitar Tabs Explorer
U2 guitar tabs for Crumbs from your table

Guitar tabs with lyrics

-------------------------------------------------------------------------------
			 Crumbs from Your Table - U2
-------------------------------------------------------------------------------
Tabbed by: Chris Morris
I found other tabs for this song tend to skate over
sections of the song, so here's my go at a tab
for the complete song.

Tuning: Standard for album version

Intro:
e-----7--7--7----------7--7--7------------|
B--------------5----------------5---------|
G--7----------------7---------------------|
D-----------------------------------------|
A-----------------------------------------|
E-----------------------------------------|

e-----5--5--5----------5--5--5------------|
B--------------5----------------5---------|
G--7----------------6---------------------|

e-----7--7--7----------7--7--7------------|
B--------------5----------------5---------|
G--7----------------7---------------------|

e--------------------------------3--------|
B--------------------------------0--------|
G---7--76--6--64--4--42--2----0--------|
D--------------------------------0--------|
A-----------------------------------------|
E-----------------------------------------|

Pre-verse:
e-----------------|--------------------------|
B-----------------|--------------------------|
G-7-9-9-9-9-9-9-9-|7-9-9-9-9-9b11r9b11r9b11r-|

e-----------------|-----------------|
B-----------------|-----------------|
G-7-9-9-9-9-9-9-9-|7---6---7--9-9-9-|

e-----------------|--------------------------|
B-----------------|--------------------------|
G-7-9-9-9-9-9-9-9-|7-9-9-9-9-9b11r9b11r9b11r-|

e-----------------|-----------------|
B-----------------|-----------------|
G-7-9-9-9-9-9-9-9-|7---6---7--9-9-9-|

Verse:
^v^v^ ^v^
A chord diagramD MajorD AAA A chord diagramG MajorG A chord diagramG MajorG         (repeat for duration of verse)

Cool down mama,   cool off
^  v ^  v ^ v ^ v ^ v ^ v  ^ ^
A chord diagramD MajorD    A chord diagramA majorA    A chord diagramA majorA A chord diagramA majorA A chord diagramD MajorD A chord diagramD MajorD A chord diagramA majorA   A chord diagramA majorA A chord diagramA majorA  A chord diagramG MajorG A chord diagramG MajorG

Chorus:
and you speak      of signs and wonders  but I
e-----------7-------7----------7-------7------------|
B----------------5------------------5---------------|
G-------7--------------7----7-------------7---------|

         need    something otherrrrr    I
e-----------5------5-----------5-------5------------|
B---------------5-------------------5---------------|
G-------7--------------7----6-------------6---------|

  would believe    if I was able        I'm waiting on
e-----------7-------7----------7-------7------------|
B----------------5------------------5---------------|
G-------7--------------7----7-------------7---------|

the crumbs from your     table            (let ring)
e------------------------3--------------------------|
B------------------------0------------7-7-7~~~-7----|
G---7--76-6-64-4-42---0------------9-9-9~~~-9----|
D------------------------0--------------------------|
A------------------------2--------------------------|
E------------------------3--------------------------|

Pre-verse, only once and with different end:
e-----------------|--------------------------|
B-----------------|--------------------------|
G-7-9-9-9-9-9-9-9-|7-9-9-9-9-9b11r9b11r9b11r-|

e-----------------|-----------------|
B-----------------|-----------------|
G-7-9-9-9-9-9-9-9-|7---6---7~~~~~~~-|

Verse 2 (You were pretty as a picture...)
^v^v^ ^v^
A chord diagramD MajorD AAA A chord diagramG MajorG A chord diagramG MajorG

Chorus:
and you speak      of signs and wonders  but I
e-----------7-------7----------7-------7------------|
B----------------5------------------5---------------|
G-------7--------------7----7-------------7---------|

         need    something otherrrrr    I
e-----------5------5-----------5-------5------------|
B---------------5-------------------5---------------|
G-------7--------------7----6-------------6---------|

  would believe    if I was able        I'm waiting on
e-----------7-------7----------7-------7------------|
B----------------5------------------5---------------|
G-------7--------------7----7-------------7---------|

the crumbs from your     table            (let ring)
e------------------------3--------------------------|
B------------------------0------------7-7-7~~~-7----|
G---7--76-6-64-4-42---0------------9-9-9~~~-9----|
D------------------------0--------------------------|
A------------------------2--------------------------|
E------------------------3--------------------------|

Another preverse,
e-----------------|--------------------------|
B-----------------|--------------------------|
G-7-9-9-9-9-9-9-9-|7-9-9-9-9-9b11r9b11r9b11r-|

e-----------------|-----------------|
B-----------------|-----------------|
G-7-9-9-9-9-9-9-9-|7---6---7~~~~~~~-|

Then:
        where  u  live shd not decide
e-----------7-------7----------7-------7------------|
B----------------5------------------5---------------|
G-------7--------------7----7-------------7---------|

      whether u live or  whether u die
e-----------5-------5----------5-------5------------|
B----------------5------------------5---------------|
G-------7--------------7----6-------------6---------|

            three to a bed   sister Ann she says
e-----------7-------7----------7-------7------------|
B----------------5------------------5---------------|
G-------7--------------7----7-------------7---------|

           dignity passes      byyyyyyy
e-----------5-------5----------5-------5------------|
B----------------5------------------5---------------|
G-------7--------------7----6-------------6---------|

Solo bit:
e-----------------------------------------|
B-----------------------------------------|
G--7-6-4-2--------------------------------|
D----------4-2-2-1-2/4-2-1----------------| 3 times

finishing with:
                  ..and you speak  ( as for chorus)
e------------------------------|-----5-------7------|
B----------------------5~~~----|----------5---------|
G--7-6-4-2-7~~~6~~~7~~~--------|-7--------------7---|

Then another preverse section, but it ends differently
because it gives way to the outro:
e-----------------|--------------------------|
B-----------------|--------------------------|
G-7-9-9-9-9-9-9-9-|7-9-9-9-9-9b11r9b11r9b11r-|

e-----------------|-----------------|
B-----------------|-----------------|
G-7-9-9-9-9-9-9-9-|7---6---7--9-9-9-|

e-----------------|--------------------------|
B-----------------|--------------------------|
G-7-9-9-9-9-9-9-9-|7-9-9-9-9-9b11r9b11r9b11r-|

Outro:
e-----------------------------------9-9-9-9h10-|
B-----------------------10-10-12-12------------|
G-7-9-9-9-9-11-11-12-12------------------------|
D----------------------------------------------|
A----------------------------------------------|
E----------------------------------------------|

e---10-10-10-10b11r10b11r10--10p9--7-75--5--5-|
B----------------------------------------------|

e-9h10-10-10-10b11r10b11r10--10p9--7-75--5--5-|
B----------------------------------------------|

e--5h7-7-7--7-7-7-7p5-5-5--5-5-5-----------|
B------------------------------------------|

e--5h7-7-7--7-7h9p7-7p5--5-5---------------|
B------------------------------------------|

e--5-5-5----7-7-----5-5-----5--------------|
B-----------5-5-----5-5-----5--------------|END


An alternative way of playing the above outro:
e------------------------------------------------|
B------------------------------------------------|
G-7-9-9-9-9--11-11-12-12--14-14--16-16--18-18/19-|
D------------------------------------------------|
A------------------------------------------------|
E------------------------------------------------|

e------------------------------------------|
B------------------------------------------|
G-19-19-19-19b20r19b20r19-19-16-1614-14---|

e------------------------------------------|
B------------------------------------------|
G-19-19-19-19b20r19b20r19-19-16-1614-14---|

e------------------------------------------|
B------------------------------------------|
G-14h16-16-16---16-16-16p14-14-14--14-14---|

e------------------------------------------|
B------------------------------------------|
G-14h16-16-16---16-16h18p16-16p14--14-14---|

e------------------------------------------|
B------------------------------------------|
G-14-14-14--16-16-----14-14-----14~~~~~----|
A-----------14-14-----14-14-----14~~~~~----|END


| /  slide up
|   slide down
| b  bend
| r  release
| h  hammer-on
| p  pull-off
| ~  vibrato
| +  harmonic
| x  Mute note

Almost there ...

Sign in to get your own page with links to favourite songs and more. You are just one click away...

Login with Facebook Login with Google