Search tabs and chords

Search for song, artist or band

Log in

One click and you are in

Login with Facebook Login with Google

Why sign up and log in

Guitar Tabs Explorer
U2 guitar tabs for City of blinding lights

Guitar tabs

-------------------------------------------------------------------------------
			     City of Blinding lights – U2
-------------------------------------------------------------------------------
Tabbed by: Tynan Burkhardt
Tuning: Keep everything nice and simple but play on electric guitar.
Played 4 times
e-18-------16-------15----------------16-------15-------------------------|
B----------------------------18-------------------------18-------16---------|
G-------------------------------------------------------------------------------|
D-------------------------------------------------------------------------------|
A-------------------------------------------------------------------------------|
E-------------------------------------------------------------------------------|
4 times
Play this 4 times
e----98---------------------98--------------------------98---------------------------|
B-------------------9h11-----------9-----------9h11--------------116--------------|
G-----------------------------------------------------------------------------------------|   x2
D-----------------------------------------------------------------------------------------|
A-----------------------------------------------------------------------------------------|
E-----------------------------------------------------------------------------------------|


| /  slide up
|   slide down
| h  hammer-on
| p  pull-off
| ~  vibrato
| +  harmonic
| x  Mute note

Other versions of City Of Blinding Lights

City of blinding lightsChords

Almost there ...

Sign in to get your own page with links to favourite songs and more. You are just one click away...

Login with Facebook Login with Google