Search tabs and chords

Search for song, artist or band

Log in

One click and you are in

Login with Facebook Login with Google

Why sign up and log in

Guitar Tabs Explorer
U2 guitar tabs for Cedarwood road

Guitar tabs with lyrics

Intro (with delay)

E|------------------------------------|
B|-10---8-7-8-7-5---7-7-7--5-5--------|
G|------------------------------------|
D|------------------------------------|  x4
A|------------------------------------|
E|------------------------------------|

Now without delay

E|----------------------------------------------------x--x-|
B|----------------------------------------------------7--9-|
G|----------------------------------------------------7--9-|
D|----------------------------------------------------7--9-|   x2
A|----------------------------------------------------5--7-|
E|-0-0-0-0-5-3---0---0-0-0-5-3---0-0-0-0-0-5-3---0-0--x--x-|
  (P.M         P.M.        P.M        P.M       P.M)

E|----------------------------------------------------x--x--      ----------------|
B|----------------------------------------------------7--9--      ----------------|
G|----------------------------------------------------7--9--      ----------------|
D|----------------------------------------------------7--9-- x2   ----------------|
A|----------------------------------------------------5--7--      -7-5-2-0--------|
E|-0---0-0-5-3---0---0-0-0-5-3---0---0-0-5-3---0-0----x--x---     ----------3-2-0-|
   (THIS WITHOUT P.M.)

----                                                                                     ----
    Then, during the verse, play the chords E chord diagramEE, A chord diagramAA, G chord diagramGG, C chord diagramCC, A chord diagramAA, B chord diagramBB with P.M. and always without delay.
----                                                                                     ----

Chorus (with delay)

E|------------------------------------|
B|-10---8-7-8-7-5---7-7-7--5-5--------|
G|------------------------------------|
D|------------------------------------|  x6
A|------------------------------------|
E|------------------------------------|

And then again without delay

E|----------------------------------------------------x--x--      ----------------|
B|----------------------------------------------------7--9--      ----------------|
G|----------------------------------------------------7--9--      ----------------|
D|----------------------------------------------------7--9-- x2   ----------------|
A|----------------------------------------------------5--7--      -7-5-2-0--------|
E|-0---0-0-5-3---0---0-0-0-5-3---0---0-0-5-3---0-0----x--x--      ----------3-2-0-|
   (THIS WITHOUT P.M.)

----                                                                                     ----
    Then, during the verse, play the chords E chord diagramEE, A chord diagramAA, G chord diagramGG, C chord diagramCC, A chord diagramAA, B chord diagramBB with P.M. and always without delay.
----                                                                                     ----

Chorus (with delay)

E|------------------------------------|
B|-10---8-7-8-7-5---7-7-7--5-5--------|
G|------------------------------------| x6
D|------------------------------------|
A|------------------------------------|
E|------------------------------------|

And then without delay

E|----------------------------------------------------x--x--|
B|----------------------------------------------------7--9--|
G|----------------------------------------------------7--9--|
D|----------------------------------------------------7--9--| x2
A|----------------------------------------------------5--7--|
E|-0---0-0-5-3---0---0-0-0-5-3---0---0-0-5-3---0-0----x--x--|
   (THIS WITHOUT P.M.)

Bridge

E|----------------------------------|
B|----------------------------------|
G|-9(x8)-12-12-14-16-16-16ph17h16---| x10
D|----------------------------------|
A|----------------------------------|
E|----------------------------------|

Outro

E|----------------------------------------------------x--x--      ----------------|
B|----------------------------------------------------7--9--      ----------------|
G|----------------------------------------------------7--9--      ----------------|
D|----------------------------------------------------7--9-- x4   ----------------|
A|----------------------------------------------------5--7--      -7-5-2-0--------|
E|-0---0-0-5-3---0---0-0-0-5-3---0---0-0-5-3---0-0----x--x--      ----------3-2-0-|
   (THIS WITHOUT P.M.)

Other versions of Cedarwood Road

Cedarwood roadChords

Almost there ...

Sign in to get your own page with links to favourite songs and more. You are just one click away...

Login with Facebook Login with Google