Search tabs and chords

Search for song, artist or band

Log in

One click and you are in

Login with Facebook Login with Google

Why sign up and log in

Guitar Tabs Explorer
U2 guitar tabs for Book of your heart

Guitar tabs

Tuning: Standard (E chord diagramEE A chord diagramAA D chord diagramDD G chord diagramGG B chord diagramBB E chord diagramEE)

Key: F chord diagramFF

Difficulty: Novice

Intro:

e|-----------------------------------|-----------------------------------|
B|----3---3---3---3---1---1----------|-----------------------------------|
G|----------------------------3---3--|----2---2---2---2---3---3---2---2--|
D|--------------------------0---0----|--0---0---0---0---0---0---0---0----|
A|-----------------------------------|-----------------------------------|
E|--3---3---3---3---1---1------------|-----------------------------------|

e|-----------------------------------|-----------------------------------|
B|--------------------1---1---1---1--|----3---3---3---3---1---1---1---1--|
G|----0---0---0---0------------------|-----------------------------------|
D|--0---0---0---0---0---0---0---0----|--0---0---0---0---0---0---0---0----|
A|-----------------------------------|-----------------------------------|
E|-----------------------------------|-----------------------------------|


Verse:

e|-----------------------------------|-----------------------------------|
B|----3---3---3---3---1---1----------|-----------------------------------|
G|----------------------------3---3--|----2---2---2---2---3---3---2---2--|
D|--------------------------0---0----|--0---0---0---0---0---0---0---0----|
A|-----------------------------------|-----------------------------------|
E|--3---3---3---3---1---1------------|-----------------------------------|
                                                                           (3x)
e|-----------------------------------|-----------------------------------|
B|--------------------1---1---1---1--|----3---3---3---3---1---1---1---1--|
G|----0---0---0---0------------------|-----------------------------------|
D|--0---0---0---0---0---0---0---0----|--0---0---0---0---0---0---0---0----|
A|-----------------------------------|-----------------------------------|
E|-----------------------------------|-----------------------------------|

Guitar nº2
e|--|--|--|--|----------|--------|---------|--------|-----------|-------|------|--------|
B|--|--|--|--|----------|--------|--10\8~--|--8\3~--|--3~--10\--|--10~--|--8~--|--8\3~--|
G|--|--|--|--|----3-----|----2~--|---------|--------|-----------|-------|------|--------|
D|--|--|--|--|------5~--|--0-----|---------|--------|-----------|-------|------|--------|
A|--|--|--|--|----------|--------|---------|--------|-----------|-------|------|--------|
E|--|--|--|--|--3-------|--------|---------|--------|-----------|-------|------|--------|

Chorus:

e|------------------------------------|--------------------------------------|
B|--6--6--6--6--6--6--8--8--8--10--6--|--6--5--5--5--5--5--5--5--5--5--5--5--|
G|------------------------------------|--------------------------------------|
D|------------------------------------|--------------------------------------|
A|------------------------------------|--------------------------------------|
E|------------------------------------|--------------------------------------|
                                                                                 (2x)
e|------------------------------------|-----------------------------|
B|--6--6--6--6--6--6--8--8--8--10--6--|--6--6--6--6--5--6--5--6--5--|
G|------------------------------------|-----------------------------|
D|------------------------------------|-----------------------------|
A|------------------------------------|-----------------------------|
E|------------------------------------|-----------------------------|


Instrumental:

e|-----------|-----------|-----------|--------------|
B|--10~--8~--|--10~--6~--|--10~--8~--|--6~--5~--5\--|
G|-----------|-----------|-----------|--------------|
D|-----------|-----------|-----------|--------------|
A|-----------|-----------|-----------|--------------|
E|-----------|-----------|-----------|--------------|


Verse:

e|-----------------------------------|-----------------------------------|
B|----3---3---3---3---1---1----------|-----------------------------------|
G|----------------------------3---3--|----2---2---2---2---3---3---2---2--|
D|--------------------------0---0----|--0---0---0---0---0---0---0---0----|
A|-----------------------------------|-----------------------------------|
E|--3---3---3---3---1---1------------|-----------------------------------|
                                                                           (3x)
e|-----------------------------------|-----------------------------------|
B|--------------------1---1---1---1--|----3---3---3---3---1---1---1---1--|
G|----0---0---0---0------------------|-----------------------------------|
D|--0---0---0---0---0---0---0---0----|--0---0---0---0---0---0---0---0----|
A|-----------------------------------|-----------------------------------|
E|-----------------------------------|-----------------------------------|

Guitar nº2
e|--|--|-----------|------|-----------|-----------|----------|----------|
B|--|--|--10~--8~--|--3~--|--10~--8~--|--10~--6~--|--10~\8~--|--6~--5~--|
G|--|--|-----------|------|-----------|-----------|----------|----------|
D|--|--|-----------|------|-----------|-----------|----------|----------|
A|--|--|-----------|------|-----------|-----------|----------|----------|
E|--|--|-----------|------|-----------|-----------|----------|----------|


Chorus:

e|------------------------------------|--------------------------------------|
B|--6--6--6--6--6--6--8--8--8--10--6--|--6--5--5--5--5--5--5--5--5--5--5--5--|
G|------------------------------------|--------------------------------------|
D|------------------------------------|--------------------------------------|
A|------------------------------------|--------------------------------------|
E|------------------------------------|--------------------------------------|
                                                                                 (2x)
e|------------------------------------|-----------------------------|
B|--6--6--6--6--6--6--8--8--8--10--6--|--6--6--6--6--5--6--5--6--5--|
G|------------------------------------|-----------------------------|
D|------------------------------------|-----------------------------|
A|------------------------------------|-----------------------------|
E|------------------------------------|-----------------------------|


Ending:

e|---------------------|----------------------|---------------|---------------|
B|--6--6--6--8--10--6--|--6p5--5--5---5--5----|--5--5--5---5--|----5----------|
G|---------------------|-------------------5--|---------------|--7-----7---7--|
D|---------------------|------------5---------|----------5----|------5---5----|
A|---------------------|----------------------|---------------|---------------|
E|---------------------|----------------------|---------------|---------------|

e|-----------------|-------------|---------------------|----------------------|
B|--------5--------|----5--------|--6--6--6--8--10--6--|--6p5--5--5---5--5----|
G|--7--7----7---7--|--6---6---6--|---------------------|-------------------5--|
D|------------5----|--------5----|---------------------|------------5---------|
A|-----------------|-------------|---------------------|----------------------|
E|-----------------|-------------|---------------------|----------------------|

e|---------------|---------------|-----------------|-------------|------|
B|--5--5--5---5--|----5----------|--------5--------|----5--------|------|
G|---------------|--7-----7---7--|--7--7----7---7--|--6---6---6--|--7~--|
D|----------5----|------5---5----|------------5----|--------5----|------|
A|---------------|---------------|-----------------|-------------|------|
E|---------------|---------------|-----------------|-------------|------|


************************************

| p   Pull-off
| \   Slide down
| ~   Vibrato

************************************

Other versions of Book Of Your Heart

Book of your heartChords

Almost there ...

Sign in to get your own page with links to favourite songs and more. You are just one click away...

Login with Facebook Login with Google