Search tabs and chords

Search for song, artist or band

Log in

One click and you are in

Login with Facebook Login with Google

Why sign up and log in

Guitar Tabs Explorer
U2 guitar tabs for Beat on the brat

Guitar tabs

Tuning: Standard (E A D G B E)

Key: A chord diagramE MajorE

Difficulty: Novice
e:-----------------------------------------------|
B:-----------------------------------------------|
G:--------------9---------------9------9-------9-|
D:-9-9-9-9-9-9--9--9-9-9-9-9-9--9--9-9-9--9-9--9-|
A:-9-9-9-9-9-9--7--9-9-9-9-9-9--7--9-9-7--9-9--7-|
E:-7-7-7-7-7-7-----7-7-7-7-7-7-----7-7----7-7----|

verse
pm ....................................................................
e:-----------------------------------------------------------------------|
B:-----------------------------------------------------------------------|
G:-----------------------------------------------------------------------|
D:-9-9-9-9-9-9-9-9-9-9-9-9-9-9-9-9-9-9-9-9-9-9-9-9-9-9-9-9-9-9-9-9-9-9-9-|
A:-9-9-9-9-9-9-9-9-9-9-9-9-9-9-9-9-9-9-9-9-9-9-9-9-9-9-9-9-9-9-9-9-9-9-9-|
E:-7-7-7-7-7-7-7-7-7-7-7-7-7-7-7-7-7-7-7-7-7-7-7-7-7-7-7-7-7-7-7-7-7-7-7-|

e:----------------------------------|
B:----------------------------------|
G:-9.--x--9--9--9---11--x--11-11-11-|
D:-9---x--9--9--9---11--x--11-11-11-|
A:-7---x--7--7--7---9---x--9--9--9--|
E:----------------------------------|

pm ....................................................................
e:-----------------------------------------------------------------------|
B:-----------------------------------------------------------------------|
G:-----------------------------------------------------------------------|
D:-9-9-9-9-9-9-9-9-9-9-9-9-9-9-9-9-9-9-9-9-9-9-9-9-9-9-9-9-9-9-9-9-9-9-9-|
A:-9-9-9-9-9-9-9-9-9-9-9-9-9-9-9-9-9-9-9-9-9-9-9-9-9-9-9-9-9-9-9-9-9-9-9-|
E:-7-7-7-7-7-7-7-7-7-7-7-7-7-7-7-7-7-7-7-7-7-7-7-7-7-7-7-7-7-7-7-7-7-7-7-|

e:----------------------------------|
B:----------------------------------|
G:-9.--x--9--9--9---11--x--11-11-11-|
D:-9---x--9--9--9---11--x--11-11-11-|
A:-7---x--7--7--7---9---x--9--9--9--|
E:----------------------------------|

pm ....................................................................
e:-----------------------------------------------------------------------|
B:-----------------------------------------------------------------------|
G:-----------------------------------------------------------------------|
D:-9-9-9-9-9-9-9-9-9-9-9-9-9-9-9-9-9-9-9-9-9-9-9-9-9-9-9-9-9-9-9-9-9-9-9-|
A:-9-9-9-9-9-9-9-9-9-9-9-9-9-9-9-9-9-9-9-9-9-9-9-9-9-9-9-9-9-9-9-9-9-9-9-|
E:-7-7-7-7-7-7-7-7-7-7-7-7-7-7-7-7-7-7-7-7-7-7-7-7-7-7-7-7-7-7-7-7-7-7-7-|

e:----------------------------------|
B:----------------------------------|
G:-9.--x--9--9--9---11--x--11-11-11-|
D:-9---x--9--9--9---11--x--11-11-11-|
A:-7---x--7--7--7---9---x--9--9--9--|
E:----------------------------------|

pm ....................................................................
e:-----------------------------------------------------------------------|
B:-----------------------------------------------------------------------|
G:-----------------------------------------------------------------------|
D:-9-9-9-9-9-9-9-9-9-9-9-9-9-9-9-9-9-9-9-9-9-9-9-9-9-9-9-9-9-9-9-9-9-9-9-|
A:-9-9-9-9-9-9-9-9-9-9-9-9-9-9-9-9-9-9-9-9-9-9-9-9-9-9-9-9-9-9-9-9-9-9-9-|
E:-7-7-7-7-7-7-7-7-7-7-7-7-7-7-7-7-7-7-7-7-7-7-7-7-7-7-7-7-7-7-7-7-7-7-7-|

:-----------------------------------------|
:-----------------------------------------|
:-----------------------------------------|
:-77777777---44444444--77777777--44444444-|
:-77777777---44444444--77777777--44444444-|
:-55555555---22222222--55555555--22222222-|


e:-----------------------------------------------------------|
B:-----------------------------------------------------------|
G:-9~~~~--9~~~-9~~~--9--9-9h11--9h11--9~~~~--9~~~-9~~~--9~~~-|
D:-----------------------------------------------------------|
A:-----------------------------------------------------------|
E:-----------------------------------------------------------|


e:-----------------------------------------------------------------------------------------|
B:-----------------------------------------------------------------------------------------|
G:--------------9-9-9-9-9-9---------------9-9-9-9-9-9--------------------------------------|
D:-9-9-9-9-9-9--9-9-9-9-9-9--9-9-9-9-9-9--9-9-9-9-9-9--9--9-9--9-9--9-9--9-9--9-9--9-9--9-9|
A:-9-9-9-9-9-9--7-7-7-7-7-7--9-9-9-9-9-9--7-7-7-7-7-7--9--9-9--9-9--9-9--9-9--9-9--9-9--9-9|
E:-7-7-7-7-7-7---------------7-7-7-7-7-7---------------7--7-7--7-7--7-7--7-7--7-7--7-7--7-7|

e:------------------------------------------------------|
B:------------------------------------------------------|
G:-11~~~~~---11~~~~~---11~~~~---11~~~~--11~~~~---11~~~~-|
D:------------------------------------------------------|
A:------------------------------------------------------|
E:------------------------------------------------------|

:----------------------|
:----------------------|
:----------------------|
:-77777777---44444444--|
:-77777777---44444444--|
:-55555555---22222222--|

e:-------------------------------------|
B:-------------------------------------|
G:-9~~~~--9~~~-9~~~--9--9-9~~~~--9~~~--|
D:-------------------------------------|
A:-------------------------------------|
E:-------------------------------------|

e:-----------------------------------------------------------------------------------------|
B:-----------------------------------------------------------------------------------------|
G:--------------9-9-9-9-9-9---------------9-9-9-9-9-9--------------------------------------|
D:-9-9-9-9-9-9--9-9-9-9-9-9--9-9-9-9-9-9--9-9-9-9-9-9--9--9-9--9-9--9-9--9-9--9-9--9-9--9-9|
A:-9-9-9-9-9-9--7-7-7-7-7-7--9-9-9-9-9-9--7-7-7-7-7-7--9--9-9--9-9--9-9--9-9--9-9--9-9--9-9|
E:-7-7-7-7-7-7---------------7-7-7-7-7-7---------------7--7-7--7-7--7-7--7-7--7-7--7-7--7-7|

e:------------------------------------------------------|
B:------------------------------------------------------|
G:-11~~~~~---11~~~~~---11~~~~---11~~~~--11~~~~---11~~~~-|
D:------------------------------------------------------|
A:------------------------------------------------------|
E:------------------------------------------------------|

:-----------------------------------------|
:-----------------------------------------|
:-----------------------------------------|
:-77777777---44444444--77777777--44444444-|
:-77777777---44444444--77777777--44444444-|
:-55555555---22222222--55555555--22222222-|

e:-------------------------------------|
B:-------------------------------------|
G:-9~~~~--9~~~-9~~~--9--9-9~~~~--9~~~--|
D:-------------------------------------|
A:-------------------------------------|
E:-------------------------------------|


e:-----------------------------------------------|
B:-----------------------------------------------|
G:--------------9---------------9------9-------9-|
D:-9-9-9-9-9-9--9--9-9-9-9-9-9--9--9-9-9--9-9--9-|
A:-9-9-9-9-9-9--7--9-9-9-9-9-9--7--9-9-7--9-9--7-|
E:-7-7-7-7-7-7-----7-7-7-7-7-7-----7-7----7-7----|

verse
pm ....................................................................
e:-----------------------------------------------------------------------|
B:-----------------------------------------------------------------------|
G:-----------------------------------------------------------------------|
D:-9-9-9-9-9-9-9-9-9-9-9-9-9-9-9-9-9-9-9-9-9-9-9-9-9-9-9-9-9-9-9-9-9-9-9-|
A:-9-9-9-9-9-9-9-9-9-9-9-9-9-9-9-9-9-9-9-9-9-9-9-9-9-9-9-9-9-9-9-9-9-9-9-|
E:-7-7-7-7-7-7-7-7-7-7-7-7-7-7-7-7-7-7-7-7-7-7-7-7-7-7-7-7-7-7-7-7-7-7-7-|

e:----------------------------------|
B:----------------------------------|
G:-9.--x--9--9--9---11--x--11-11-11-|
D:-9---x--9--9--9---11--x--11-11-11-|
A:-7---x--7--7--7---9---x--9--9--9--|
E:----------------------------------|

pm ....................................................................
e:-----------------------------------------------------------------------|
B:-----------------------------------------------------------------------|
G:-----------------------------------------------------------------------|
D:-9-9-9-9-9-9-9-9-9-9-9-9-9-9-9-9-9-9-9-9-9-9-9-9-9-9-9-9-9-9-9-9-9-9-9-|
A:-9-9-9-9-9-9-9-9-9-9-9-9-9-9-9-9-9-9-9-9-9-9-9-9-9-9-9-9-9-9-9-9-9-9-9-|
E:-7-7-7-7-7-7-7-7-7-7-7-7-7-7-7-7-7-7-7-7-7-7-7-7-7-7-7-7-7-7-7-7-7-7-7-|

e:----------------------------------|
B:----------------------------------|
G:-9.--x--9--9--9---11--x--11-11-11-|
D:-9---x--9--9--9---11--x--11-11-11-|
A:-7---x--7--7--7---9---x--9--9--9--|
E:----------------------------------|

pm ....................................................................
e:-----------------------------------------------------------------------|
B:-----------------------------------------------------------------------|
G:-----------------------------------------------------------------------|
D:-9-9-9-9-9-9-9-9-9-9-9-9-9-9-9-9-9-9-9-9-9-9-9-9-9-9-9-9-9-9-9-9-9-9-9-|
A:-9-9-9-9-9-9-9-9-9-9-9-9-9-9-9-9-9-9-9-9-9-9-9-9-9-9-9-9-9-9-9-9-9-9-9-|
E:-7-7-7-7-7-7-7-7-7-7-7-7-7-7-7-7-7-7-7-7-7-7-7-7-7-7-7-7-7-7-7-7-7-7-7-|

e:----------------------------------|
B:----------------------------------|
G:-9.--x--9--9--9---11--x--11-11-11-|
D:-9---x--9--9--9---11--x--11-11-11-|
A:-7---x--7--7--7---9---x--9--9--9--|
E:----------------------------------|

pm ....................................................................
e:-----------------------------------------------------------------------|
B:-----------------------------------------------------------------------|
G:-----------------------------------------------------------------------|
D:-9-9-9-9-9-9-9-9-9-9-9-9-9-9-9-9-9-9-9-9-9-9-9-9-9-9-9-9-9-9-9-9-9-9-9-|
A:-9-9-9-9-9-9-9-9-9-9-9-9-9-9-9-9-9-9-9-9-9-9-9-9-9-9-9-9-9-9-9-9-9-9-9-|
E:-7-7-7-7-7-7-7-7-7-7-7-7-7-7-7-7-7-7-7-7-7-7-7-7-7-7-7-7-7-7-7-7-7-7-7-|


:-----------------------------------------|
:-----------------------------------------|
:-----------------------------------------|
:-77777777---44444444--77777777--44444444-|
:-77777777---44444444--77777777--44444444-|
:-55555555---22222222--55555555--22222222-|


e:----------------------------------------------------|
B:----------------------------------------------------|
G:-9~~~~--9~~~-9~~~--9--9-8h9--9~~~~--9~~~-9~~~--9~~~-|
D:----------------------------------------------------|
A:----------------------------------------------------|
E:----------------------------------------------------|

e:------------------------------------------------------------------------------------|
B:------------------------------------------------------------------------------------|
G:-11~~~~~---11~~~~~---11~~~~---11~~~~--11h13--11h13---11~~~~--11h13-11--9--9~~~~-----|
D:------------------------------------------------------------------------------------|
A:------------------------------------------------------------------------------------|
E:------------------------------------------------------------------------------------|

e:------------------------------------------------------------------------------------|
B:------------------------------------------------------------------------------------|
G:-11~~~~~---11~~~~~---11~~~~---11~~~~--11h13--11h13---11~~~~--11h13-11--9--9~~~~-----|
D:------------------------------------------------------------------------------------|
A:------------------------------------------------------------------------------------|
E:------------------------------------------------------------------------------------|

e:-------------------------------------|
B:-------------------------------------|
G:-9~~~~--9~~~-9~~~--9--9-9~~~~--9~~~--|
D:-------------------------------------|
A:-------------------------------------|
E:-------------------------------------|

e:-----------------------------------------------------------------------------------------|
B:-----------------------------------------------------------------------------------------|
G:--------------9-9-9-9-9-9---------------9-9-9-9-9-9--------------------------------------|
D:-9-9-9-9-9-9--9-9-9-9-9-9--9-9-9-9-9-9--9-9-9-9-9-9--9--9-9--9-9--9-9--9-9--9-9--9-9--9-9|
A:-9-9-9-9-9-9--7-7-7-7-7-7--9-9-9-9-9-9--7-7-7-7-7-7--9--9-9--9-9--9-9--9-9--9-9--9-9--9-9|
E:-7-7-7-7-7-7---------------7-7-7-7-7-7---------------7--7-7--7-7--7-7--7-7--7-7--7-7--7-7|

:----------------------|
:----------------------|
:----------------------|
:-77777777---44444444--|
:-77777777---44444444--|
:-55555555---22222222--|

e:-----------------------------------------------------------------------------------------|
B:-----------------------------------------------------------------------------------------|
G:--------------9-9-9-9-9-9---------------9-9-9-9-9-9--------------------------------------|
D:-9-9-9-9-9-9--9-9-9-9-9-9--9-9-9-9-9-9--9-9-9-9-9-9--9--9-9--9-9--9-9--9-9--9-9--9-9--9-9|
A:-9-9-9-9-9-9--7-7-7-7-7-7--9-9-9-9-9-9--7-7-7-7-7-7--9--9-9--9-9--9-9--9-9--9-9--9-9--9-9|
E:-7-7-7-7-7-7---------------7-7-7-7-7-7---------------7--7-7--7-7--7-7--7-7--7-7--7-7--7-7|

:-----------------------------------------|
:-----------------------------------------|
:-----------------------------------------|
:-77777777---44444444--77777777--44444444-|
:-77777777---44444444--77777777--44444444-|
:-55555555---22222222--55555555--22222222-|


e:----------------------------------------------------------|
B:----------------------------------------------------------|
G:--------------9---------------9------9-------9------9-----|
D:-9-9-9-9-9-9--9--9-9-9-9-9-9--9--9-9-9--9-9--9--9-9-9-9---|
A:-9-9-9-9-9-9--7--9-9-9-9-9-9--7--9-9-7--9-9--7--9-9-7-9---|
E:-7-7-7-7-7-7-----7-7-7-7-7-7-----7-7----7-7-----7-7---7---|


hillo son mex

tabbed in 17/05/03

22/09/18

Almost there ...

Sign in to get your own page with links to favourite songs and more. You are just one click away...

Login with Facebook Login with Google