Search tabs and chords

Search for song, artist or band

Log in

One click and you are in

Login with Facebook Login with Google

Why sign up and log in

Guitar Tabs Explorer
U2 bass tabs for Bad

Bass tabs

U2
Bad Live Bass Tabs

Intro
G------------------------------------
D------------------------------------
A-12\0------------------------------5
E------------------------------------

G------------------------------------
D------------------------------------
A-12\0---------------------------12\5
E------------------------------------

G------------------------------------
D-------------------------7-7---7-7--
A-5-5-5-5-5-5-5-5-0-5-5-5-----5-----0
E------------------------------------

G-------7-7-5---9-9-7-9-7-9--
D-0-7-0----------------------
A---------------------------0
E----------------------------

G--------------------------------
D---0-5-7-5-7-5/7\5-7-5-7-7-7-7--
A-0-----------------------------0
E--------------------------------

G-------------/9-9-7-9-9--
D---0-0-7-5-7-------------
A-0----------------------0
E-------------------------


Verse
G--------------------------------      |
D--------------------------------      |
A-0-0-0-0-0-0-0-0-0-0-0-0-0-0-0-0      |
E--------------------------------      |
                                       |   (x4)
G--------------------------------      |
D--------------------------------      |
A-5-5-5-5-5-5-5-5-5-5-5-5-5-5-5-5      |
E--------------------------------      |

G--------------------------------
D--------------------------------
A-0-0-0-0-0-0-0-0-0-0-0-0-0-0-0-0
E--------------------------------

G----------------------------------
D---------------------7---7---7-7--
A-5-5-5-5-5-5-5-5-5-5---5---5-----0
E----------------------------------


I'm wide awake...

G--------------------------------
D-5-5-5-5------------------------
A---------7-7-7-7-5-5-5-5-0-0-0-0
E--------------------------------

G-7-7-5-5/9-9-7---5-7-7-5----
D-------------------------5-7
A----------------------------
E----------------------------

Verse
G--------------------------------      |
D--------------------------------      |
A-0-0-0-0-0-0-0-0-0-0-0-0-0-0-0-0      |
E--------------------------------      |
                                       |   Repeat through to the end
G--------------------------------      |   of the guitar solo.
D--------------------------------      |
A-5-5-5-5-5-5-5-5-5-5-5-5-5-5-5-5      |
E--------------------------------      |


I'm wide awake...

G--------------------------------
D-5-5-5-5------------------------
A---------7-7-7-7-5-5-5-5-0-0-0-0
E--------------------------------

G-/9-9-7---5-7-5-7-9-7--
D----------------------0
A-----------------------
E-----------------------

G-5-5---9-7-9-9-5-9--
D-----7-------------0
A--------------------
E--------------------

G------------------------
D-5-7-5-7---5-7-5-7-5-7--
A-----------------------0
E------------------------

G-------/9-9-7-7-5-------7--
D-0-0-0------------5-7-5----
A--------------------------0
E---------------------------

G-/9-9-7-5-7---5-7-7-9-7/14--
D----------------------------
A---------------------------0
E----------------------------

G-9-9-9-5-7-7/14-7-7
D-------------------
A-------------------
E-------------------

G-7---7-7/9-9-7-7-----7---7--
D---7-------------7-7---7----
A---------------------------0
E----------------------------

Questions, Comments, Suggestions, Corrections welcome
Mike Parsons
mmp@hawking.unh.edu

Almost there ...

Sign in to get your own page with links to favourite songs and more. You are just one click away...

Login with Facebook Login with Google