Search tabs and chords

Search for song, artist or band

Log in

One click and you are in

Login with Facebook Login with Google

Why sign up and log in

Guitar Tabs Explorer
U2 bass tabs for Are you gonna wait forever

Bass tabs

Intro:  0:18
G|-------------------------------|
D|----------------------------9\-|
A|-------------------------------|
E|-------------------------------|

G|-------------------------------|-------------------------------------|
D|-9-9-9-9-9-7-------------------|-7---7-7-7-7-----9---9-9-9-9-9-9-9-9-|
A|---------------7---7-7-7-7-9---|-------------9-----------------------|
E|-------------------------------|-------------------------------------|

G|-------------------------------|-------------------------------------|
D|-9-9-9-9-9-7-------------------|-7---7-7-7-7-----9---9-9-9-9-9-9-9-9-|
A|---------------7---7-7-7-7-9---|-------------9-----------------------|
E|-------------------------------|-------------------------------------|

G|-------------------------------|
D|-9-9-9-9-9-7-------------------|
A|---------------7---7-7-7-7-9---|
E|-------------------------------|


Verse 1:  0:36
G|-------------------------------------|
D|-7---7-7-7-7-----9---9-9-9-9-9-9-9-9-|
A|-------------9-----------------------|
E|-------------------------------------|

G|-------------------------------|-------------------------------------|-----------------|
D|-9-9-9-9-9-7-------------------|-7---7-7-7-7-----9---9-9-9-9-9-9-9-9-|-9-9-9-9-9-9-9-9-|
A|---------------7---7-7-7-7-9---|-------------9-----------------------|-----------------|
E|-------------------------------|-------------------------------------|-----------------|

G|--------------------------------------------------------|-----------------|
D|-11-11-11-11-11---------------------9---9-9-9-9-9-9-9-9-|-9-9-9-9-9-9-9-9-|
A|----------------11-9---9-9-9-9-11-----------------------|-----------------|
E|--------------------------------------------------------|-----------------|

G|--------------------------------------------------------|-----------|
D|-11-11-11-11-11---------------------9---9-9-9-9-9-9-9-9-|-9-9-9-9-9-|
A|----------------11-9---9-9-9-9-11-----------------------|-----------|
E|--------------------------------------------------------|-----------|

Chorus: 1:06
G|-------------------|-------------------------------------|-----------|
D|-7-----------------|-7---7-7-7-7-----9---9-9-9-9-9-9-9-9-|-9-9-9-9-9-|x2
A|---7-7---7-7-7-9---|-------------9-----------------------|-----------|
E|-------------------|-------------------------------------|-----------|


Verse 2:  1:22
G|-------------------|-------------------------------------|-----------|
D|-7-----------------|-7---7-7-7-7-----9---9-9-9-9-9-9-9-9-|-9-9-9-9-9-|
A|---7-7---7-7-7-9---|-------------9-----------------------|-----------|
E|-------------------|-------------------------------------|-----------|

G|-------------------|-------------------------------------|-----------------|
D|-7-----------------|-7---7-7-7-7-----9---9-9-9-9-9-9-9-9-|-9-9-9-9-9-9-9-9-|
A|---7-7---7-7-7-9---|-------------9-----------------------|-----------------|
E|-------------------|-------------------------------------|-----------------|

G|--------------------------------------------------------|-----------------|
D|-11-11-11-11-11---------------------9---9-9-9-9-9-9-9-9-|-9-9-9-9-9-9-9-9-|
A|----------------11-9---9-9-9-9-11-----------------------|-----------------|
E|--------------------------------------------------------|-----------------|

G|--------------------------------------------------------|-----------|
D|-11-11-11-11-11---------------------9---9-9-9-9-9-9-9-9-|-9-9-9-9-9-|
A|----------------11-9---9-9-9-9-11-----------------------|-----------|
E|--------------------------------------------------------|-----------|


Chorus: 1:52
G|-------------------|-------------------------------------|-----------|
D|-7-----------------|-7---7-7-7-7-----9---9-9-9-9-9-9-9-9-|-9-9-9-9-9-|x4
A|---7-7---7-7-7-9---|-------------9-----------------------|-----------|
E|-------------------|-------------------------------------|-----------|


Bridge: 2:23
G|-------------------------|-------------------------|-----------------|-----------------|
D|-11-11-11-11-11-11-11-11-|-11-11-11-11-11-11-11-11-|-7-7-7-7-7-7-7-7-|-7-7-7-7-7-7-7-7-|
A|-------------------------|-------------------------|-----------------|-----------------|
E|-------------------------|-------------------------|-----------------|-----------------|

G|-----------------|-----------------|-----------------|-----------------|
D|-----------------|-----------------|-7-7-7-7-7-7-7-7-|-7-7-7-7-7-7-7-7-|
A|-9-9-9-9-9-9-9-9-|-9-9-9-9-9-9-9-9-|-----------------|-----------------|
E|-----------------|-----------------|-----------------|-----------------|

G|-------------------------|-------------------------|-----------------|-----------------|
D|-11-11-11-11-11-11-11-11-|-11-11-11-11-11-11-11-11-|-7-7-7-7-7-7-7-7-|-7-7-7-7-7-7-7-7-|
A|-------------------------|-------------------------|-----------------|-----------------|
E|-------------------------|-------------------------|-----------------|-----------------|

G|-----------------|-----------------|-----------------|---------------|
D|-----------------|-----------------|-7-7-7-7-7-7-7-7-|-9-9-9-9-9---9-|
A|-9-9-9-9-9-9-9-9-|-9-9-9-9-9-9-9-9-|-----------------|---------------|
E|-----------------|-----------------|-----------------|---------------|


Chorus: 2:52
G|-------------------|-------------------------------------|-----------|
D|-------------------|-7---7-7-7-7-----9---9-9-9-9-9-9-9-9-|-9-9-9-9-9-|
A|---7-----7-7-7-9---|-------------9-----------------------|-----------|
E|-------------------|-------------------------------------|-----------|

G|-------------------|-------------------------------------|-----------|
D|-7-----------------|-7---7-7-7-7-----9---9-9-9-9-9-9-9-9-|-9-9-9-9-9-|x5
A|---7-7---7-7-7-9---|-------------9-----------------------|-----------|
E|-------------------|-------------------------------------|-----------|

G|-------------------|
D|-7------9----------|
A|---7~--------------|
E|-------------------|

Almost there ...

Sign in to get your own page with links to favourite songs and more. You are just one click away...

Login with Facebook Login with Google