Search tabs and chords

Search for song, artist or band

Log in

One click and you are in

Login with Facebook Login with Google

Why sign up and log in

Guitar Tabs Explorer
U2 bass tabs for Angel of harlem (Ver. 2)

Bass tabs

Angel of Harlem by U2
Bassist: Adam Clayton
Standard Tuning EADG


Verses: just repeat

G |-----------------|-----------------|-----------------|-----------------|
D |-----------------|-----------------|-----------------|-----------------|
A |-3------------3-3|--------0-3-3----|--------3-3------|-------0-3-3-----|
E |------01----3----|--0-1-3----------|-01---3----------|-0-1-3-----------|
Choruses: just repeat

G |-----------------|-----------------|-----------------|-----------------|
D |3-----3-----3----|5-----5-----5----|5-----5-----5----|3-----3-----3----|
A |--------3-5------|--------5-7------|--------5-7------|--------3-5------|
E |-----------------|-----------------|-----------------|-----------------|

G |-----------------|-----------------|
D |3-----3-----3----|5-----5-----5----|
A |--------3-5------|--------5-7------|
E |-----------------|-----------------|


Bridge:

G |-----------------|-----------------|-----------------|-----------------|
D |-----------------|-----------------|-----------------|-----------------|
A |0>---------------|0----------------|-----------------|----------------0|
E |-----------------|-43>-------------|321>-------------|1----11111111----|

G |-----------------|-----------------|-----------------|
D |-7-6-5-7-5----5-4|-3-5-3-----------|-----------------|
A |-----------------|-----------------|----------75----0|
E |------------3----|--------1>-------|------------7531-|

Other versions of Angel Of Harlem

Angel of harlemBass tabs

Almost there ...

Sign in to get your own page with links to favourite songs and more. You are just one click away...

Login with Facebook Login with Google