Search tabs and chords

Search for song, artist or band

Log in

One click and you are in

Login with Facebook Login with Google

Why sign up and log in

Guitar Tabs Explorer
U2 guitar tabs for American soul

Guitar tabs

Intro:
e|----------------|-----------------|------------------|
B|----------------|-----------------|------------------|
G|----------------|-----------------|------------------|
D|----------------|-----------------|------------------|
A|----------------|-----------------|------------------|
E|--0-0-----------|--0-0------------|--0-0-------------|

Verse 1:
e|----------------|-----------------|----------------|-----------------|
B|----------------|-----------------|----------------|-----------------|
G|----------------|-----------------|----------------|-----------------| x8
D|----------------|-----------------|----------------|-----------------|
A|----12-10h12----|----12-10h12p10--|----12-10h12----|--14-12-10h12p10-|
E|--0-------------|--0--------------|--0-------------|-----------------|

Pre-chorus 1:
e|--------------|--------------------------|
B|--------------|--------------------------|
G|--------------|--------------------------|
D|--------------|--------------------------|
A|--------------|--------------------------|
E|--7-10--7--10-|-7--10--7-10-7-10-7-------|

Chorus 1:
e|------------------------|-----------------------|-----------------------|-------------------|
B|------------------------|-----------------------|-----------------------|-------------------|
G|------------------------|-----------------------|-----------------------|-------------------|
D|------------------------|-----------------------|-----------------------|-------------------|
A|------------------------|-----------------------|-----------------------|-------------------|
E|--0-0--0-0----7-10-7-10-|-0-0--0-0----7-10-7-10-|-0-0--0-0----7-10-7-10-|-0-0--0-0----------|

Verse 2:
e|----------------|-----------------|----------------|-----------------|
B|----------------|-----------------|----------------|-----------------|
G|----------------|-----------------|----------------|-----------------| x4
D|----------------|-----------------|----------------|-----------------|
A|----12-10h12----|----12-10h12p10--|----12-10h12----|--14-12-10h12p10-|
E|--0-------------|--0--------------|--0-------------|-----------------|

Pre-chorus 2:
e|----------------|--------------------------|
B|----------------|--------------------------|
G|----------------|--------------------------|
D|----------------|--------------------------|
A|----------------|--------------------------|
E|--5/7-10--7--10-|-7--10--7-10-7-10-7-------|

Chorus 2:
e|------------------------|-----------------------|-----------------------|-------------------------|
B|------------------------|-----------------------|-----------------------|-------------------------|
G|------------------------|-----------------------|-----------------------|-------------------------|
D|------------------------|-----------------------|-----------------------|-------------------------|
A|------------------------|-----------------------|-----------------------|-------------------------|
E|--0-0--0-0----7-10-7-10-|-0-0--0-0----7-10-7-10-|-0-0--0-0----7-10-7-10-|-0-0--0-0----7-10-7-10---|

e|------------------------|-----------------------|
B|------------------------|-----------------------|
G|------------------------|-----------------------|
D|------------------------|-----------------------|
A|------------------------|-----------------------|
E|--0-0--0-0----7-10-7-10-|-0-0--0-0----7-10-7-10-|

Interlude:
e|--x-x---x-x-|--x-x---x-x--------|
B|--x-x---x-x-|--x-x---x-x--------|
G|--x-x---x-x-|--x-x---x-x--------| x15
D|--x-x---x-x-|--x-x---x-x--------|
A|--x-x---x-x-|--x-x---x-x--------|
E|--x-x---x-x-|--x-x---x-x--------|

e|--------------|----------------------------|
B|--------------|----------------------------|
G|--------------|----------------------------|
D|--------------|----------------------------|
A|--------------|----------------------------|
E|--7-10--7--10-|-7--10--7-10-7-10-7---------|

Chorus 3:
e|------------------------|-----------------------|-----------------------|-------------------|
B|------------------------|-----------------------|-----------------------|-------------------|
G|------------------------|-----------------------|-----------------------|-------------------|
D|------------------------|-----------------------|-----------------------|-------------------|
A|------------------------|-----------------------|-----------------------|-------------------|
E|--0-0--0-0----7-10-7-10-|-0-0--0-0----7-10-7-10-|-0-0--0-0----7-10-7-10-|-0-0--0-0----------|

Outro:
e|------------------------|-----------------------|-----------------------|-------------------|
B|------------------------|-----------------------|-----------------------|-------------------|
G|------------------------|-----------------------|-----------------------|-------------------|
D|------------------------|-----------------------|-----------------------|-------------------|
A|------------------------|-----------------------|-----------------------|-------------------|
E|--0-0--0-0----7-10-7-10-|-0-0--0-0----7-10-7-10-|-0-0--0-0----7-10-7-10-|-0-0--0-0----------|

e|----------------------------|-----------------------------------|
B|----------------------------|-----------------------------------|
G|----------------------------|-----------------------------------|
D|----------------------------|-----------------------------------|
A|----------------------------|-----------------------------------|
E|--7-10--7--10--7--10--7--10-|-7--10--7--10--7--10--7--10--0--0--|

Other versions of American Soul

American soulChords

Almost there ...

Sign in to get your own page with links to favourite songs and more. You are just one click away...

Login with Facebook Login with Google