Search tabs and chords

Search for song, artist or band

Log in

One click and you are in

Login with Facebook Login with Google

Why sign up and log in

Guitar Tabs Explorer
U2 bass tabs for Always

Bass tabs with lyrics

Track: Always
Album: Beautiful Day Single
Instrument: Bass Guitar
 
Tabbed by Greg McGuire
 

Intro:
 
|-------------------------\  (Bass drops out for a
|--------------------------\ few beats after the
|--5-5-5-5--5-2-0-2--/ guitar joins in but
|-------------------------/  comes back for vocals)
 
Verse:
 
("Here today and gone tomorrow...")
 
|------------------------------------------------------------------------------
|------------------------------------------------------------------------------
|--5-5-5-5-5-5--0-0-0-0-0-0-0-0--2-2-2-2-2-2-2------------------------
|--------------------------------------------------------------3-3-3-3-3-3-3-3-
 
|------------------------------------------------------------------------------
|------------------------------------------------------------------------------
|--5-5-5-5-5-5--0-0-0-0-0-0-0-0-----------------------------------------------
|------------------------------------------3-3-3-3-3-3-3-3-3-3-3-3-3-3-3-3--
 
Chorus
 
("What you have you don't need...")
|------------------------------------------------------------------------------
|------------------------------------------------------------------------------
|-0-0-0--2-2-2--5-5-5---------------------5-5-5-5-5-5-5-5--0-0-0-0-0-0-0-0--
|----------------------------3-3-3-3-3-3-3-------------------------------------
 
Ending
 
(..now and forever...for always...)
|------------------------------------------------------------------
|------------------------------------------------------------------
|--------------------5-5-5-5-5-5-5-5--0-0-0-0-0-0-0-0--
|------------------------------------------------------------------
 
The order for the song is:
 
Intro x7
Verse x2
Chorus x3
Intro x1
Verse x2
Chorus x4
Verse x2 (double each note for this verse)
Chorus x6
Ending x3
 
-----
 
That's it! Hope you enjoyed this greatly under-rated U2 classic, an
early version of "Beautiful Day" that eventually became the b-side of
the hit.
 
For comments, criticisms etc. e-mail me at: feelix06@hotmail.com.
Enjoy!

Almost there ...

Sign in to get your own page with links to favourite songs and more. You are just one click away...

Login with Facebook Login with Google