Search tabs and chords

Search for song, artist or band

Log in

One click and you are in

Login with Facebook Login with Google

Why sign up and log in

Guitar Tabs Explorer
U2 guitar tabs for All i want is you

Guitar tabs

TAB: "ALL I WANT IS YOU" (U2) Transcribed by Campbell James

***TUNE YOUR GUITAR DOWN 1/2 STEP***

verse 1 (acoustic)
   A chord diagramAA                       D chord diagramDD
e------------------------------------------------
b--2--------2--------2-----3--------3--------3---
g--2--2--2--2--2--2--2--2--2--2--2--2--2--2--2--2
d--2--2--2--2--2--2--2--2--0--0--0--0--0--0--0--0
a--0--0--0--0--0--0--0--0------------------------
e------------------------------------------------
"You say you want..."
   F#m chord diagramF#mF#m                     D chord diagramDD
e--2--------2--------2-----2--------2--------2---
b--2--------2--------2-----3--3--3--3--3--3--3--3
g--2--2--2--2--2--2--2--2--2--2--2--2--2--2--2--2
d--4--4--4--4--4--4--4--2--0--0--0--0--0--0--0--0
a--4--4--4--4--4--4--4--4------------------------
e-----2--2-----2--2------------------------------
"But all the promises we made..."


   A chord diagramAA                       D chord diagramDD
e--------------------------2--2--2--2--2--2--2--2
b--2--------0-----2--2-----3--3--3--3--3--3--3--3
g--2--2--2--2--2--2--2--2--2--2--2--2--2--2--2--2
d--2--2--2--2--2--2--2--2--0--0--0--0--0--0--0--0
a--0--0--0--0--0--0--0--0------------------------
e------------------------------------------------
"When all I want is..."


(acoustic & electric)
   A chord diagramAA                       D chord diagramDD
e--0--0-0---0--0---0--0----2---2---0---0---2-----
b--2--2-2---0--2---0--2----3---3---3---3---3-----
g--2--2-2---2--2---2--2----2---2---2---2---2-----(Strum freely with acoustic)
d--2--2-2---2--2---2--2----0---0---0---0---0-----
a--0--0-0---0--0---0--0--------------------------
e------------------------------------------------
"...you"

for verse 2, repeat above pattern with acoustic.
Electric comes in at:
   A chord diagramAA                       D chord diagramDD
e-------5----5----5--5-----------5----5----5--5--
b-----5-----5-5-----5----------5-----5-5-----5---
g------------------------------------------------(ringing)
d------------------------------------------------
a------------------------------------------------
e------------------------------------------------
"You say you'll give me eyes on a moon of blindness..."


   F#m chord diagramF#mF#m                        D chord diagramDD
e--2--2-2--2-2--2-2--2-2-2-2--2--2-2--2-2--2-3--2-2-2-2
b--2--2-2--2-2--2-2--2-2-2-2--3--3-3--3-3--3-3--3-3-3-3
g------------------------------------------------------
d------------------------------------------------------
a------------------------------------------------------
e------------------------------------------------------
"But all the promises we make..."


   A chord diagramAA                            D chord diagramDD
e----5-5----5-5----5-5----5-5-----5-5----5-5----7-7----5-5
b--5------5------5------5-------5------5------5------5----
g---------------------------------------------------------
d---------------------------------------------------------
a---------------------------------------------------------
e---------------------------------------------------------
"When all I want is..."


   A chord diagramAA                       D chord diagramDD
e--0--0-0---0--0---0--0----2---2---0---0---2-----
b--2--2-2---0--2---0--2----3---3---3---3---3-----
g--2--2-2---2--2---2--2----2---2---2---2---2-----
d--2--2-2---2--2---2--2----0---0---0---0---0-----
a--0--0-0---0--0---0--0--------------------------
e------------------------------------------------
"...you"


for verse 3, basically repeat pattern with acoustic and electric until
"When all I want is..."
(acoustic guitar strum chords freely)
   A chord diagramAA                           D chord diagramDD
e--5--5---5--5---5--5---5--5---7--7---7--7---5--5---5--5-
b----5------5------5------5------5------5------5------5--
g--------------------------------------------------------(X2)
d--------------------------------------------------------
a--------------------------------------------------------
e--------------------------------------------------------
"...you"


   A chord diagramAA                           D chord diagramDD
e--9--9---9--9---9--9---9--9---9--9---9--9---9--9---9--9-
b----5------5------5------7------7------7------7------5--
g--------------------------------------------------------(X2)
d--------------------------------------------------------
a--------------------------------------------------------
e--------------------------------------------------------


   A chord diagramAA                                D chord diagramDD
e--5-5-5-5-5-5-5-5-5-5-5-5-5-5-5-5--5-5-5-5-5-5-5-5-5-5-5-5-5-5-5-5
b--5-5-5-5-5-5-5-5-5-5-5-5-5-5-5-5--5-5-5-5-5-5-5-5-5-5-5-5-5-5-5-5
g------------------------------------------------------------------(X3)
d------------------------------------------------------------------
a------------------------------------------------------------------
e------------------------------------------------------------------
"You... all I want is... you..."


   A chord diagramAA                                 D chord diagramDD
e--9--9--9--9--9--9--9--9--9--9--9--14-14-14-14-14-14-14-14-14-14-14
b-10-10-10-10-10-10-10-10-10-10-10--15-15-15-15-15-15-15-15-15-15-15
g--9--9--9--9--9--9--9--9--9--9--9--14-14-14-14-14-14-14-14-14-14-14
d-------------------------------------------------------------------
a-------------------------------------------------------------------
e-------------------------------------------------------------------
"...you."


solo:
  A chord diagramAA
e-17--------17--------17--------17--------17
b----14-14-----14-14-----14-14-----14-14----


  D chord diagramDD
e----17----17--------17--------17--------17-------17
b-15---15-----15-15-----15-15-----15-15-----15-15---


  A chord diagramAA
e----17--------17-----17-----17----17--17
b-14----14-14------14-----14-----14--14--


  D chord diagramDD
e----17--------17-----17-----17----17--17
b-15----15-15------15-----15-----15--15--


  A chord diagramAA                             D chord diagramDD
e-------17----17----17----17----17----17----17----17----17
b-17-17----17----17----17----17----17----17----17----17---


  A chord diagramAA
e-17-17-17-17-17-17-17-17-17-17-17--20-20-20-20-20-20-20-20
b-17-17-17-17-17-17-17-17-17-17-17--17-17-17-17-17-17-17-17


   A chord diagramAA                       D chord diagramDD
e--0--0--0--0--0--0--0--0--2--2--2--2--2--2--2--2
b--2--2--2--2--2--2--2--2--3--3--3--3--3--3--3--3
g--2--2--2--2--2--2--2--2--2--2--2--2--2--2--2--2(X2)
d--2--2--2--2--2--2--2--2--0--0--0--0--0--0--0--0
a--0--0--0--0--0--0--0--0------------------------
e------------------------------------------------


   A chord diagramAA                                 D chord diagramDD
e--9--9--9--9--9--9--9--9--9--9--9--14-14-14-14-14-14-14-15-15-14-14
b-10-10-10-10-10-10-10-10-10-10-10--15-15-15-15-15-15-15-15-15-15-15
g--9--9--9--9--9--9--9--9--9--9--9--14-14-14-14-14-14-14-14-14-14-14
d-------------------------------------------------------------------
a-------------------------------------------------------------------
e-------------------------------------------------------------------


   A chord diagramAA                                 D chord diagramDD
e--9--9--9--9--9--9--9--9--9--9--9--14-14-14-14-14-14-14-14-14-14-14
b-10-10-10-10-10-10-10-10-10-10-10--15-15-15-15-15-15-15-15-15-15-15
g--9--9--9--9--9--9--9--9--9--9--9--14-14-14-14-14-14-14-14-14-14-14
d-------------------------------------------------------------------
a-------------------------------------------------------------------
e-------------------------------------------------------------------


   A chord diagramAA
e--0-
b--2-
g--2-
d--2-
a--0-
e----

funky string music ending...

Other versions of All I Want Is You

All I want is youChords
All I want is you liveTabs

Almost there ...

Sign in to get your own page with links to favourite songs and more. You are just one click away...

Login with Facebook Login with Google