Search tabs and chords

Search for song, artist or band

Log in

One click and you are in

Login with Facebook Login with Google

Why sign up and log in

Guitar Tabs Explorer
U2 bass tabs for 4th of july (Ver.  2)

Bass tabs

Tuning: Standard tuning


Tabbed by: bassm99
E-mail: alanmatthews1966@yahoo.co.uk

Tuning: E, A, D, G

Repeated Bass line:

G|--------------------------------------------------------------------------|
D|--------------------------------------------------------------------------|
A|---------1-3--3-5--3-5----------------------------------------------------|
E|--3-5--5------------------------------------------------------------------|

At 1:53 bass notes start to slow down.

End: (Fades out to stop at 2:14)

G|--------------------------------------------------------------------------|
D|--------------------------------------------------------------------------|
A|---------1-3--3-5---------------------------------------------------------|
E|--3-5--5------------------------------------------------------------------|

4th Of July bass tab

U2 bass tabs for 4th of july (Ver.  2) "4th Of July" from the album "The Unforgettable Fire" (1984).

Written by U2.

Other versions of 4th Of July

4th of julyBass tabs

Almost there ...

Sign in to get your own page with links to favourite songs and more. You are just one click away...

Login with Facebook Login with Google