Guitar Tabs Explorer
Tyrannosaurus Rex guitar chords for Wielder of words

Wielder Of Words chords


Be the first to rate

Wielder Of Words chords by Tyrannosaurus Rex

Guitar chords with lyrics

Print
  • Capo on 3rd

Tuning: Standard (E chord diagramEE A chord diagramAA D chord diagramDD G chord diagramGG B chord diagramBB E chord diagramEE)

Difficulty: Intermediate

Intro:
G chord diagramGG               Gmaj7 chord diagramGmaj7Gmaj7 G chord diagramGG               Gmaj7 chord diagramGmaj7Gmaj7
 Nah nah nah nah no,   nah nah nah nah no, yeah
G chord diagramGG               Gmaj7 chord diagramGmaj7Gmaj7 G chord diagramGG               Gmaj7 chord diagramGmaj7Gmaj7
 Nah nah nah nah no no, nah nah nah nah no

Verse 1:
G chord diagramGG               C chord diagramCC    D chord diagramDD                 G chord diagramGG
Wielder of words, is steeped within traditional verbs
C chord diagramCC    D chord diagramDD           G chord diagramGG
 And curiously a dented top hat

e|----------------------------------------|
B|----------------------------------------|
G|----------------------------------------|
D|-------------------0---2---0---2-0-2----|
A|-------------------0---3-------3-0-3----|
E|-3--3-3-----3--3------------------------|
   discovered in the moonlit Laundromat

C chord diagramCC         Cmaj9 chord diagramCmaj9Cmaj9/B chord diagramBB            Am7 chord diagramAm7Am7
Nah nah nah nah, nah nah nah nah nah nah nah

Verse 2:
  G chord diagramGG             C chord diagramCC    D chord diagramDD              G chord diagramGG
A chord diagramAA busted cheroot, is smoking on the heel of his boot
C chord diagramCC   D chord diagramDD        G chord diagramGG
His opera is torn thru' the haste

e|---------------------------------------------|
B|---------------------------------------------|
G|---------------------------------------------|
D|--------------------2-2----0--2-----0--2-----|
A|-------------0-0----3-3-------3-----0--3-----|
E|----3-3-3-3--0-0-----------------------------|
   Of operatic oyster eating evenings of waste

C chord diagramCC         Cmaj9 chord diagramCmaj9Cmaj9/B chord diagramBB            Am7 chord diagramAm7Am7
Nah nah nah nah, nah nah nah nah nah nah nah

Interlude:
G chord diagramGG C chord diagramCC    D chord diagramDD          G chord diagramGG C chord diagramCC    D chord diagramDD
   Nah nah nah nah,  Nah nah nah nah

e|-----------------------------------|
B|-----------------------------------|
G|-----------------------------------|
D|-----------2-----0---2---0---2-----|
A|---------0-3---------3---0---3-----|
E|-3---3---0-------------------------|
   Nah nah nah nah nah nah nah nah

C chord diagramCC         Cmaj9 chord diagramCmaj9Cmaj9/B chord diagramBB            Am7 chord diagramAm7Am7
Nah nah nah nah, nah nah nah nah nah nah nah

Verse 3:
G chord diagramGG               C chord diagramCC  D chord diagramDD            G chord diagramGG
Sleek astrakhan, reclining on a chippendale stand
C chord diagramCC   D chord diagramDD                  G chord diagramGG
 So sad they should be owning a man

e|------------------------------------------------------|
B|------------------------------------------------------|
G|------------------------------------------------------|
D|----------------------------2----2----0-----2----0-2--|
A|------------------------0---3----3----------3----0-3--|
E|-------3--3----3----3---0-----------------------------|
   Who's thicker than the forestry from where they began

C chord diagramCC         Cmaj9 chord diagramCmaj9Cmaj9/B chord diagramBB            Am7 chord diagramAm7Am7
Nah nah nah nah, nah nah nah nah nah nah nah
C chord diagramCC         Cmaj9 chord diagramCmaj9Cmaj9/B chord diagramBB            Am7 chord diagramAm7Am7
Nah nah nah nah, nah nah nah nah nah nah nah
C chord diagramCC         Cmaj9 chord diagramCmaj9Cmaj9/B chord diagramBB            Am7 chord diagramAm7Am7
Nah nah nah nah, nah nah nah nah nah nah nah
C chord diagramCC         Cmaj9 chord diagramCmaj9Cmaj9/B chord diagramBB            Am7 chord diagramAm7Am7         Am chord diagramAmAm
Nah nah nah nah, nah nah nah nah nah nah nah

Bridge:

e|---0----------------------------------|
B|-------1------------------------------|
G|-----------2---0---2---0---2---4---2--|
D|--------------------------------------|
A|-0---0---0---0---0---0---0---0---0----|
E|--------------------------------------| x2

e|---0------------------------------------|
B|-------1--------------------------------|
G|-----------2---0---2----0---2----4---2--|
D|----------------------------------------|
A|-0---0---0---0---0---0----0---0----0----|
E|----------------------------------------| x11
     Ro  bard    Ro  bard de  Font Le  Roy

e|----------------------|
B|----------------------|
G|----------------------|
D|-2-2----2-2----2------|
A|-0-0----0-0----0------|
E|----------------------|
   Robard Robard De

Outro:
G chord diagramGG Gmaj7 chord diagramGmaj7Gmaj7
Nah nah nah nah...

Comment this song and these guitar chords

Do you have corrections, comments on the guitar chords, thoughts about the song or a message to the author? Write them below.