Log in

One click and you are in

Login with Facebook Login with Google

Why sign up and log in

Guitar Tabs Explorer
Type O Negative bass tabs for Less than 0

Bass tabs

Tuning: Drop B (B F# B E)

Bass-only Intro:
No effects
G|---------------------------------------------------------------------------|
D|---------------------------------------------------------------------------|
A|---------------------------------------------------------------------------|
E|--10/12--10/12--10/12--10/12--10/12--10/12--10/12--10/12--10/12---10/12----|
G|---------------------------------------------------------------------------|
D|---------------------------------------------------------------------------|
A|---------------------------------------------------------------------------|
E|--10/12--10/12--10/12--10/12--10/12--10/12--10/12--10/12--10/12---10/12----|

Pre-Verse:
Distortion on
G|---------------------------------------------------------------------------|
D|---------------------------------------------------------------------------|
A|---------------------------------------------------------------------------|
E|--10/12--10/12--10/12--10/12--10/12--10/12--10/12--10/12--10/12---10/12----|

G|---------------------------------------------------------------------------|
D|---------------------------------------------------------------------------|
A|---------------------------------------------------------------------------|
E|--10/12--10/12--10/12--10/12--10/12--10/12--10/12--10/12--10/12---10/12----|


Verse 1:
            you can hear it under the sitar
G|---------------------------------------------------------------------------|
D|---------------------------------------------------------------------------|
A|0-----------------------------3-5-9h11p9h11p9h11--------0----------------//|
E|------3-----------------9-10-----------------------------------3-----------|

G|---------------------------------------------------------------------------|
D|---------------------------------------------------------------------------|
A|0-----------------------------3-5-9h11p9h11p9h11--------0----------------//|
E|------3-----------------9-10-----------------------------------3-----------|

Pre-Verse:

G|---------------------------------------------------------------------------|
D|---------------------------------------------------------------------------|
A|---------------------------------------------------------------------------|
E|--10/12--10/12--10/12--10/12--10/12--10/12--10/12--10/12--10/12---10/12----|

G|---------------------------------------------------------------------------|
D|---------------------------------------------------------------------------|
A|---------------------------------------------------------------------------|
E|--10/12--10/12--10/12--10/12--10/12--10/12--10/12--10/12--10/12---10/12----|

Verse 2:

G|---------------------------------------------------------------------------|
D|---------------------------------------------------------------------------|
A|0-----------------------------3-5-9h11p9h11p9h11--------0----------------//|
E|------3-----------------9-10-----------------------------------3-----------|

G|---------------------------------------------------------------------------|
D|---------------------------------------------------------------------------|
A|0-----------------------------3-5-9h11p9h11p9h11--------0----------------//|
E|------3-----------------9-10-----------------------------------3-----------|


Chorus:

G|---------------------------------------------------------------------------|
D|---------------------------------------------------------------------------|
A|---------------------------------------------------------------------------|
E|7-7-7-7---7---7-5-5-5-5---5---5-3-3-3-3---3---3-2-2-2-2---2----------------|

G|---------------------------------------------------------------------------|
D|---------------------------------------------------------------------------|
A|---------------------------------------------------------------------------|
E|7-7-7-7---7---7-5-5-5-5---5---5-3-3-3-3---3---3-2-2-2-2---2----------------|


Breakdown part I:
    wait for Kenny to finish the guitar riff (no bass the first time)
G|---------------------------------------------------------------------------|
D|---------------------------------------------------------------------------|
A|---------------------------------------------------------------------------|
E|---------------------------------------------------------------------------|
 slide then let it ring when the riff starts again   then end it with
G|---------------------------------------------------------------------------|
D|-----------------------------------------------------------------9---------|
A|-\9------------------------------------------------9-10-11--9-11---11-9----|
E|------------------------------------------------------------------------7-9|


Breakdown part II:

G|-----------------------------------------------------------------------------|
D|-----------------------------------------------------------------------------|
A|-----------------------------------------------------------------------------|
E|9/15---9/15---9/15---9/15---9/15---9/15---9/15---9/15------------------------|


G|-----------------------------------------------------------------------------|
D|-----------------------------------------------------------------------------|
A|-----------------------------------------------------------------------------|
E|9/15---9/15---9/15---9/15---9/15---9/15---9/15---9/15------------------------|


Interlude: (no effects)

G|---------------------------------------------------------------------------|
D|---------------------------------------------------------------------------|
A|---------------------------------------------------------------------------|
E|5-5------4-4------5-5------4-4------5-5------4-4------5-5------4-4---------|

G|---------------------------------------------------------------------------|
D|---------------------------------------------------------------------------|
A|---------------------------------------------------------------------------|
E|5-5------4-4------5-5------4-4------5-5------4-4------5-5------4-4---------|


Breakdown:

G|-----------------------------------------------------------------------------|
D|-----------------------------------------------------------------------------|
A|-----------------------------------------------------------------------------|
E|9/15---9/15---9/15---9/15---9/15---9/15---9/15---9/15------------------------|


G|-----------------------------------------------------------------------------|
D|-----------------------------------------------------------------------------|
A|-----------------------------------------------------------------------------|
E|9/15---9/15---9/15---9/15---9/15---9/15---9/15---9/15------------------------|


Interlude: (no effects)

G|---------------------------------------------------------------------------|
D|---------------------------------------------------------------------------|
A|---------------------------------------------------------------------------|
E|5-5------4-4------5-5------4-4------5-5------4-4------5-5------4-4---------|

G|---------------------------------------------------------------------------|
D|---------------------------------------------------------------------------|
A|---------------------------------------------------------------------------|
E|5-5------4-4------5-5------4-4------5-5------4-4------5-5------4-4---------|


Final breakdown:
let Kenny do the riff the first time
G|---------------------------------------------------------------------------|
D|---------------------------------------------------------------------------|
A|---------------------------------------------------------------------------|
E|---------------------------------------------------------------------------|

G|---------------------------------------------------------------------------|
D|-----------------------------------------------------------------9---------|
A|-\9------------------------------------------------9-10-11--9-11---11-9----|
E|------------------------------------------------------------------------7-9|


[Verse throwback (no bass)

G|---------------------------------------------------------------------------|
D|---------------------------------------------------------------------------|
A|---------------------------------------------------------------------------|
E|---------------------------------------------------------------------------|


Chorus:

G|---------------------------------------------------------------------------|
D|---------------------------------------------------------------------------|
A|---------------------------------------------------------------------------|
E|7-7-7-7---7---7-5-5-5-5---5---5-3-3-3-3---3---3-2-2-2-2---2----------------|

G|---------------------------------------------------------------------------|
D|---------------------------------------------------------------------------|
A|---------------------------------------------------------------------------|
E|7-7-7-7---7---7-5-5-5-5---5---5-3-3-3-3---3---3-2-2-2-2---2----------------|


Final chorus:

G|---------------------------------------------------------------------------|
D|---------------------------------------------------------------------------|
A|9-9-9-9---9---9-7-7-7-7---7---7-5-5-5-5---5---5-4-4-4-4---4----------------|
E|---------------------------------------------------------------------------|


G|---------------------------------------------------------------------------|
D|---------------------------------------------------------------------------|
A|9-9-9-9---9---9-7-7-7-7---7---7-5-5-5-5---5---5-4-4-4-4---4----------------|
E|---------------------------------------------------------------------------|


Outro:

G|-------------------------------------------------------------------------------------|
D|-------------------------------------------------------------------------------------|
A|---10--12----1O--12------------------------------------------------------------------|
E|-------------------------------------------------------------------------------------|


************************************

| / Slide up
| h Hammer-on
| p Pull-off
| \ Slide down


************************************

Almost there ...

Sign in to get your own page with links to favourite songs and more. You are just one click away...

Login with Facebook Login with Google