Log in

One click and you are in

Login with Facebook Login with Google

Why sign up and log in

Guitar Tabs Explorer
Type O Negative bass tabs for Its never enough

Bass tabs with lyrics

Tuning: B Tuning (B E A D)

🎸 Intro:

D|---------------------------------------------------------------------------|
A|---------------------------------------------------------------------------|
E|-2----2-2-4-5---5--5-5-9--8-7--7-7-7-5--5-4-3------------------------------| x2
B|---------------------------------------------------------------------------|

  The riff gets slower around the end
D|-4----4-4-6-7---7--7-7-11--10-9--9-9-9-7--7-6-5----------------------------|
A|---------------------------------------------------------------------------|
E|-2----2-2-4-5---5--5-5-9----8-7--7-7-7-5--5-4-3----------------------------| x2
B|---------------------------------------------------------------------------|


Main Riff: First played by guitar alone
D|---------------------------------------------------------------------------|
A|-----------------------10-------------------------------------------10-----|
E|-----------------------------6------------------------------------------6--|
B|/9--------------7--------------------------------------9-9-9-9-9-7---------|


D|---------------------------------------------------------------------------|
A|-------9------------9----------9--------10---------------------------------|
E|---------------------------------------------6-----------------------------| x4
B|-9-9-9-------9-9-9------9-9-9-------7--------------------------------------|


🎸 Verse 1:
The verse is interspersed with the main riff: this riff is always followed by the main one.
You don't have to play the chords but I think it sounds better.
D|---------------------------------------------------------------------------|
A|11-11-11-11--9-9-9--9---8-8-8--8---9-9-9--9--------------------------------|
E|---------------------------------------------------------------------------| x2 (including main riff)
B|9--9--9--9---7-7-7--7---6-6-6--6---7-7-7--7--------------------------------|

🎸 Bridge:
D|---------------------------------------------------------------------------|
A|-----------------------10-------------------------------------------10-----|
E|-----------------------------6------------------------------------------6--|
B|/9--------------7--------------------------------------9-9-9-9-9-7---------|


🎸 Verse 2:
D|---------------------------------------------------------------------------|
A|11-11-11-11--9-9-9--9---8-8-8--8---9-9-9--9--------------------------------|
E|---------------------------------------------------------------------------| x2 (including main riff)
B|9--9--9--9---7-7-7--7---6-6-6--6---7-7-7--7--------------------------------|


🎸 Chorus:
D|-9-9-9-9-9-9-9-----7-7-7-7-7-7-7--------11-----------------------11---------------|
A|-------------------------------------10-----------------------10------------------|
E|-7-7-7-7-7-7-7-----5-5-5-5-5-5-5--------------b9----7--5--3----------b9----7--5--3| x2
B|----------------------------------------------------------------------------------|


Interlude Main Riff:               bend the last note multiple times
D|---------------------------------------------------------------------------|
A|---------------------------------------------------------------------------|
E|-4/6--6--6-6-6/9--9--9-9-9/11--11--11-11-11-11/b13-------------------------| x3
B|---------------------------------------------------------------------------|


Interlude 🎸 Verse:
D|---------------------------------------------------------------------------|
A|---------------------------------------------------------------------------|
E|-6--6--6-4--4--4-6--6--6--------6---8-7------------------------------------| x4
B|-----------------------------7---------------------------------------------|


Interlude Main Riff:               bend the last note multiple times
D|---------------------------------------------------------------------------|
A|---------------------------------------------------------------------------|
E|-4/6--6--6-6-6/9--9--9-9-9/11--11--11-11-11-11/b13-------------------------| x2
B|---------------------------------------------------------------------------|


Interlude 🎸 Verse:
D|---------------------------------------------------------------------------|
A|---------------------------------------------------------------------------|
E|-6--6--6-4--4--4-6--6--6--------6---8-7------------------------------------| x4
B|-----------------------------7---------------------------------------------|


Interlude Main Riff:            get faster and add some extra licks near the end
D|---------------------------------------------------------------------------|
A|---------------------------------------------------------------------------|
E|-4/6--6--6-6-6/9--9--9-9-9/11--11--11-11-11-11/b13-------------------------| x6
B|---------------------------------------------------------------------------|


Back to Main Part:
D|---------------------------------------------------------------------------|
A|-----------------------10-------------------------------------------10-----|
E|-----------------------------6------------------------------------------6--|
B|/9--------------7--------------------------------------9-9-9-9-9-7---------|


Last 🎸 Verse:
D|---------------------------------------------------------------------------|
A|11-11-11-11--9-9-9--9---8-8-8--8---9-9-9--9--------------------------------|
E|---------------------------------------------------------------------------| x2 (including main riff)
B|9--9--9--9---7-7-7--7---6-6-6--6---7-7-7--7--------------------------------|


🎸 Chorus:
D|-9-9-9-9-9-9-9-----7-7-7-7-7-7-7--------11-----------------------11---------------|
A|-------------------------------------10-----------------------10------------------|
E|-7-7-7-7-7-7-7-----5-5-5-5-5-5-5--------------b9----7--5--3----------b9----7--5--3| x2
B|----------------------------------------------------------------------------------|


D|---------------------------------------------------------------------------|
A|---------------------------------------------------------------------------|
E|7-7-7-7-7-7-7-7-7-7-7-7-7-7-7-7-7-7-7-7-7-7-7-7-7-7------------------------|
B|---------------------------------------------------------------------------|


Final 🎸 Chorus:
D|----11---------------------11----------------------------------------------|
A|-10---------------------10-------------------------------------------------|
E|--------b9----7--5--3----------b9----7--5--3-------------------------------| x2
B|---------------------------------------------------------------------------|

Piano Outro


************************************

| / Slide up
| b Bend

************************************

Almost there ...

Sign in to get your own page with links to favourite songs and more. You are just one click away...

Login with Facebook Login with Google