Log in

One click and you are in

Login with Facebook Login with Google

Why sign up and log in

Guitar Tabs Explorer
Type O Negative bass tabs for Halloween in heaven

Halloween In Heaven bass tab by Type O Negative

Type O Negative bass tabs for Halloween in heaven

Bass tabs

Tuning: Standard (E A D G)


Intro:

G|-----------------------| x2
D|-----------------------|
A|6---4---3--------------|
E|------------11---2---4-|

Verse: x4

G|-----------------------------------------|
D|-----------------------------------------|
A|6-6-6-6-6-6-6-4------------------------4-|
E|----------------5-2-2-2-2-2-2-2-4-4-4-5--|


Chorus:

G|-----------------------|
D|-----------------------|
A|6---4---3---6----------|
E|-----------------2---4-|


Verse: x4

G|-----------------------------------------|
D|-----------------------------------------|
A|6-6-6-6-6-6-6-4------------------------4-|
E|----------------5-2-2-2-2-2-2-2-4-4-4-5--|

Chorus: x2

G|-----------------------|
D|-----------------------|
A|6---4---3---6----------|
E|-----------------2---4-|


Bridge: x2

G|-----------------------------------------------------| x5
D|---------------------------------------------------8-|
A|1-1-1-4-------1-1-1-4-------1-1-1-4-----6-6-7-7-8-8--|
E|--------4-4-4---------4-4-4--------4-4-4-------------|

G|------------------------------------| x2
D|------------------------------------|
A|6--4------------6-4-----4-----------|
E|--------4--2-------------2------2-4-|


Outro: Repeat until the end

G|------------------------------------------------------------------|
D|------------------------------------------------------------------|
A|6-6-6-6-6-6-4-4-4-4-4-3-3-3-3-3-6-6-6-6-6-6-6---------------------|
E|----------------------------------------------2-2-2-2-2-4-4-4-4-4-|

Small part at the very end

G|------------|
D|------------|
A|6-6-6-6-4-6-|
E|------------|


************************************

Almost there ...

Sign in to get your own page with links to favourite songs and more. You are just one click away...

Login with Facebook Login with Google