Log in

One click and you are in

Login with Facebook Login with Google

Why sign up and log in

Guitar Tabs Explorer
The Tymes bass tabs for You asked me to be yours

You Asked Me To Be Yours bass tab - The Tymes

The Tymes bass tabs for You asked me to be yours

Bass tabs

Tuning: Standard (E A D G)

Difficulty: Novice


Tuning: EADG

0:11

G|------------------------------------------------------------------------------------------------|
D|5-------------------5-----------------------5---------------------------5-----------------------|
A|------------------------5-----------------------5-----------------------------------5-----------|
E|------------------------------------------------------------------------------------------------|

G|------------------------------------------------------------------------------------------------|
D|------------------------------------------------------------------------------------------------|
A|--------------------------------------------3---5-----------------------5-------------------5---|
E|5-----------------------5-----------------------------------------------------------------------|

0:24

G|------------------------------------------------------------------------------------------------|
D|------------------------------------------------------------------------------------------------|
A|------------------------6-------------------6---5-----------------------5-----------5-----------|
E|5-----------------------------------------------------------------------------------------------|

G|------------------------------------------------------------------------------------------------|
D|5-----------------------------------------------5-------------------------------------------4---|
A|--------------------5---3-----------6-----------------------------------------------5---7-------|
E|------------------------------------------------------------------------------------------------|

0:38

G|------------------------------------------------------------------------------------------------|
D|5-------------------5---------------------------------------------------5-----------------------|
A|------------------------5-----------------------5-----------------------------------5-----------|
E|------------------------------------------------------------------------------------------------|

G|------------------------------------------------------------------------------------------------|
D|------------------------------------------------------------------------------------------------|
A|--------------------------------------------3---5-----------------------5-----------------------|
E|5-----------------------5-----------------------------------------------------------------------|

0:52

G|------------------------------------------------------------------------------------------------|
D|------------------------------------------------------------------------------------------------|
A|------------------------6-------------------6---5-----------------------5-----------5-----------|
E|5-----------------------------------------------------------------------------------------------|

G|------------------------------------------------------------------------------------------------|
D|5-----------------------------------------------5-----------------------5-----------4-----------|
A|--------------------5---3-----------6-----------------------------------------------------------|
E|------------------------------------------------------------------------------------------------|

1:05

G|------------------------------------------------------------------------------------------------|
D|------------------------------------------------------------------------------------------------|
A|7-------------------7---------------7-----------------------------------6-------------------6---|
E|------------------------7-----------------------6-----------------------------------------------|

G|------------------------------------------------------------------------------------------------|
D|------------------------5-----------------------------------------------------------------------|
A|5-----------------------------------------------------------------------7-----------7-----------|
E|------------------------------------------------7-----------------------------------------------|

1:19

G|------------------------------------------------------------------------------------------------|
D|------------------------------------------------------------------------------------------------|
A|------------------------------------------------7-----------------------------------7---5-------|
E|7-------------------------------------------------------------------------------------------7---|

G|------------------------------------------------------------------------------------------------|
D|--------------------------------------------------------------------------------------------4---|
A|------------------------6-------------------6---5-----------------------------------5---7-------|
E|5-------------------5---------------------------------------------------------------------------|

1:33

G|------------------------------------------------------------------------------------------------|
D|5-------------------5---------------------------5-------------------5---------------------------|
A|------------------------5-----------------------------------------------5-----------5-----------|
E|------------------------------------------------------------------------------------------------|

G|------------------------------------------------------------------------------------------------|
D|------------------------------------------------------------------------------------------------|
A|--------------------------------------------3---5-----------------------5-----------------------|
E|5-----------------------5-----------------------------------------------------------------------|

1:47

G|------------------------------------------------------------------------------------------------|
D|------------------------------------------------------------------------------------------------|
A|------------------------6-----------------------5-----------------------5-----------5-----------|
E|5-----------------------------------------------------------------------------------------------|

G|------------------------------------------------------------------------------------------------|
D|5-----------------------------------------------5-----------------------5-----------------------|
A|--------------------5---3-----------6---------------------------------------------------5-------|
E|--------------------------------------------------------------------------------------------7---|

G|----------------------------------------------------|
D|----------------------------------------------------|
A|------------------------6-------------------6---5---|
E|5---------------------------------------------------|


2:09 Until fadeout.

G|------------------------------------------------------------------------------------------------|
D|5-------------------5---------------------------5-------------------5---------------------------|
A|------------------------5-------------------5---------------------------5-----------------------|
E|------------------------------------------------------------------------------------------------|

Almost there ...

Sign in to get your own page with links to favourite songs and more. You are just one click away...

Login with Facebook Login with Google