Log in

One click and you are in

Login with Facebook Login with Google

Why sign up and log in

Guitar Tabs Explorer
The Tymes bass tabs for Wonderful wonderful

Bass tabs

Tuning: Standard (E A D G)

Difficulty: Novice


Tuning: EADG

0:10

G|------------------------------------------------------------------------------------------------|
D|------------------------------------------------------------------------------------------------| x3
A|1-----------1-----------1-----------1-----------1-----------1-----------1-----------1-----------|
E|------------------------------------------------------------------------------------------------|

0:30

G|------------------------------------------------------------------------------------------------|
D|1-----------1-----------1-----------1-----------1-----------1-----------1-----------1-----------|
A|------------------------------------------------------------------------------------------------|
E|------------------------------------------------------------------------------------------------|

G|------------------------------------------------------------------------------------------------|
D|1-----------1-----------------------------------------------------------------------------------|
A|------------------------3-----------3-----------------------------------5-----------5-----------|
E|------------------------------------------------4-----------4-----------------------------------|

0:44

G|------------------------------------------------------------------------------------------------|
D|5-----------5-----------5-----------5-----------------------------------------------------------|
A|------------------------------------------------3-----------3-----------3-----------3-----------|
E|------------------------------------------------------------------------------------------------|

G|------------------------------------------------------------------------------------------------|
D|3-----------3-----------3-----------3-----------3-----------3-----------------------------------|
A|------------------------------------------------------------------------5-----------3-----------|
E|------------------------------------------------------------------------------------------------|

0:58

G|------------------------------------------------------------------------------------------------|
D|------------------------------------------------------------------------------------------------| x2
A|1-----------1-----------1-----------1-----------1-----------1-----------1-----------1-----------|
E|------------------------------------------------------------------------------------------------|

1:11

G|------------------------------------------------------------------------------------------------|
D|1-----------1-----------1-----------1-----------1-----------1-----------1-----------1-----------|
A|------------------------------------------------------------------------------------------------|
E|------------------------------------------------------------------------------------------------|

G|------------------------------------------------------------------------------------------------|
D|1-----------1-----------------------------------------------------------------------------------|
A|------------------------3-----------3-----------------------------------5-----------5-----------|
E|------------------------------------------------4-----------4-----------------------------------|

1:25

G|------------------------------------------------------------------------------------------------|
D|5-----------5-----------5-----------5-----------------------------------------------------------|
A|------------------------------------------------3-----------3-----------3-----------3-----------|
E|------------------------------------------------------------------------------------------------|

G|------------------------------------------------------------------------------------------------|
D|3-----------3-----------3-----------3-----------------------3-----------------------------------|
A|------------------------------------------------1-----------------------1-----------1-----------|
E|------------------------------------------------------------------------------------------------|

1:39

G|------------------------------------------------------------------------------------------------|
D|1-----------------------3-----------------------1-----------------------1-----------1-----------|
A|------------3-----------------------1-----------------------1-----------------------------------|
E|------------------------------------------------------------------------------------------------|

G|------------------------------------------------------------------------------------------------|
D|5-----------5-----------------------------------3-----------1-----------0-----------------------|
A|------------------------3-----------3-----------------------------------------------3-----------|
E|------------------------------------------------------------------------------------------------|

1:52

G|------------------------------------------------------------------------------------------------|
D|------------------------------------------------------------------------------------------------| x2
A|1-----------1-----------1-----------1-----------1-----------1-----------1-----------1-----------|
E|------------------------------------------------------------------------------------------------|

2:06

G|------------------------------------------------------------------------------------------------|
D|1-----------1-----------1-----------1-----------1-----------1-----------1-----------1-----------|
A|------------------------------------------------------------------------------------------------|
E|------------------------------------------------------------------------------------------------|

G|------------------------------------------------------------------------------------------------|
D|1-----------1-----------------------------------------------------------------------------------|
A|------------------------3-----------3-----------------------------------5-----------5-----------|
E|------------------------------------------------4-----------4-----------------------------------|

2:20

G|------------------------------------------------------------------------------------------------|
D|5-----------5-----------5-----------5-----------------------------------------------------------|
A|------------------------------------------------3-----------3-----------3-----------3-----------|
E|------------------------------------------------------------------------------------------------|

G|------------------------------------------------------------------------------------3-----2-----|
D|3-----------3-----------3-----------3-----------------------3-----------------------------------|
A|------------------------------------------------1-----------------------1-----------------------|
E|------------------------------------------------------------------------------------------------|

2:34

G|------------------------------------------------------------------------------------------------|
D|5-----------5-----------5-----------5-----------------------------------------------------------|
A|------------------------------------------------3-----------3-----------3-----------3-----------|
E|------------------------------------------------------------------------------------------------|

G|------------------------------------------------------------------------------------------------|
D|3-----------3-----------3-----------3-----------3-----------3-----------3-----------3-----------|
A|------------------------------------------------------------------------------------------------|
E|------------------------------------------------------------------------------------------------|

2:47

G|------------------------------------------------------------------------------------------------|
D|------------------------------------------------------------------------------------------------|
A|1-----------1-----------1-----------1-----------1-----------1-----------1-----------1-----------|
E|------------------------------------------------------------------------------------------------|

G|----------------------------------------------------------------------------|
D|------------------------------------------------------------3---------------|
A|1-----------1-----------1-----------1-----------1-----------------------1---|
E|----------------------------------------------------------------------------|

Almost there ...

Sign in to get your own page with links to favourite songs and more. You are just one click away...

Login with Facebook Login with Google