Log in

One click and you are in

Login with Facebook Login with Google

Why sign up and log in

Guitar Tabs Explorer
The Tymes bass tabs for Why should i cry

Bass tabs

Tuning: Standard (E A D G)

Difficulty: Novice


Tuning: EADG

G|------------------------------------------------------------------------------------------------|
D|5-----------------------7-----------------------5-----------------------7-----------------------|
A|------------5-----------------------5-----------------------5-----------------------5-----------|
E|------------------------------------------------------------------------------------------------|

0:07

G|------------------------------------------------------------------------------------------------|
D|5-----------------------7-----------------------5-----------------5-----------------6-----------|
A|------------5-----------------------5-----------------------5-----------7-----------------------|
E|------------------------------------------------------------------------------------------------|

G|------------------------------------------------------------------------------------------------|
D|7-----------7-----------------------------------------------------------------------------4-----|
A|------------------------5-----------5-----3-----2-----------1-----------0-----------5-----------|
E|------------------------------------------------------------------------------------------------|

0:22

G|------------------------------------------------------------------------------------------------|
D|5-----------------------7-----------------------5-----------------5-----------------6-----------|
A|------------5-----------------------5-----------------------5-----------7-----------------------|
E|------------------------------------------------------------------------------------------------|

G|------------------------------------------------------------------------------------------------|
D|7-----------7-----------------------------4-----5-----------------------5-----------------5-----|
A|------------------------5-----------5-----------------------5-----------------------5-----------|
E|------------------------------------------------------------------------------------------------|

0:38

G|------------------------------------------------------------------------------------------------|
D|4-----------3-----------2-----------------------2-----------------------------------------2-----|
A|------------------------------------0-----------------------0-----------5-----------5-----------|
E|------------------------------------------------------------------------------------------------|

G|------------------------------------------------------------------------------------------------|
D|4-----------3-----------2-----------------------2-----------7-----------------------------------|
A|------------------------------------0-----------------------------------5-----------5-----5-----|
E|------------------------------------------------------------------------------------------------|

0:53

G|------------------------------------------------------------------------------------------------|
D|5-----5-----------5-----------------------------5-----5-----------5-----------------------------|
A|------------------------5-----5-----------5-----------------------------5-----------5-----------|
E|------------------------------------------------------------------------------------------------|

G|------------------------------------------------------------------------------------------------|
D|5-----5-----------5-----------------------5-----------------------5-----------------2-----4-----|
A|------------------------5-----5-----------------5-----5-----------------5-----------------------|
E|------------------------------------------------------------------------------------------------|

1:08

G|------------------------------------------------------------------------------------------------|
D|5-----------------------7-----------------------5-----------------5-----------------6-----------|
A|------------5-----------------------5-----------------------5-----------7-----------------------|
E|------------------------------------------------------------------------------------------------|

G|------------------------------------------------------------------------------------------------|
D|7-----------7-----------------------------------------------------------------------------4-----|
A|------------------------5-----------5-----3-----2-----------1-----------0-----------5-----------|
E|------------------------------------------------------------------------------------------------|

1:23

G|------------------------------------------------------------------------------------------------|
D|5-----------------------7-----------------------5-----------------5-----------------6-----------|
A|------------5-----------------------5-----------------------5-----------7-----------------------|
E|------------------------------------------------------------------------------------------------|

G|------------------------------------------------------------------------------------------------|
D|7-----------7-----------------------------4-----5-----------------------7-----------------------|
A|------------------------5-----------5-----------------------5-----------------------5-----------|
E|------------------------------------------------------------------------------------------------|

1:38

G|------------------------------------------------------------------------------------------------|
D|5-----------------------7-----------------------5-----------------5-----------------6-----------|
A|------------5-----------------------5-----------------------5-----------7-----------------------|
E|------------------------------------------------------------------------------------------------|

G|------------------------------------------------------------------------------------------------|
D|7-----------7-----------------------------------------------------------------------------4-----|
A|------------------------5-----------5-----3-----2-----------1-----------0-----------5-----------|
E|------------------------------------------------------------------------------------------------|

1:54

G|------------------------------------------------------------------------------------------------|
D|5-----------------------7-----------------------5-----------------5-----------------6-----------|
A|------------5-----------------------5-----------------------5-----------7-----------------------|
E|------------------------------------------------------------------------------------------------|

G|------------------------------------------------------------------------------------------------|
D|7-----------7-----------------------------4-----5-----------3-----------5-----------------5-----|
A|------------------------5-----------5-----------------------------------------------5-----------|
E|------------------------------------------------------------------------------------------------|

2:08

G|------------------------------------------------------------------------------------------------|
D|4-----------3-----------2-----------------------2-----------------------------------------2-----|
A|------------------------------------0-----------------------0-----------5-----------5-----------|
E|------------------------------------------------------------------------------------------------|

G|------------------------------------------------------------------------------------------------|
D|4-----------3-----------2-----------------------2-----------7-----------------------------------|
A|------------------------------------0-----------------------------------5-----------5-----5-----|
E|------------------------------------------------------------------------------------------------|

2:23

G|------------------------------------------------------------------------------------------------|
D|5-----5-----------5-----------------------------5-----5-----------5-----------------------------|
A|------------------------5-----5-----------5-----------------------------5-----------5-----------|
E|------------------------------------------------------------------------------------------------|

G|------------------------------------------------------------------------------------------------|
D|5-----5-----------5-----------------------5-----------------------5-----------------2-----4-----|
A|------------------------5-----5-----------------5-----5-----------------5-----------------------|
E|------------------------------------------------------------------------------------------------|

2:38

G|------------------------------------------------------------------------------------------------|
D|5-----------------------7-----------------------5-----------------5-----------------6-----------|
A|------------5-----------------------5-----------------------5-----------7-----------------------|
E|------------------------------------------------------------------------------------------------|

G|------------------------------------------------------------------------------------------------|
D|7-----------7-----------------------------4-----5-----------------5-----------------6-----------|
A|------------------------5-----------5-----------------------5-----------7-----------------------|
E|------------------------------------------------------------------------------------------------|

G|------------------------------------------------------------------------------|
D|7-----------------------------------------------5-----------------------------|
A|------------7-----------5-----------5-----------------------5-----------7-----|
E|------------------------------------------------------------------------------|

Almost there ...

Sign in to get your own page with links to favourite songs and more. You are just one click away...

Login with Facebook Login with Google