Log in

One click and you are in

Login with Facebook Login with Google

Why sign up and log in

Guitar Tabs Explorer
The Tymes bass tabs for There is love

Bass tabs

Tuning: Standard (E A D G)

Difficulty: Novice


Tuning: EADG

0:28

G|------------------------------------------------------------------------------------------------|
D|5-----------5-----------5-----------5-----------5-----------5-----------5-----------5-----------|
A|------------------------------------------------------------------------------------------------|
E|------------------------------------------------------------------------------------------------|

G|------------------------------------------------------------------------------------------------|
D|5-----------5-----------5-----------5-----------5-----------5-----4-----2-----------2-----------|
A|------------------------------------------------------------------------------------------5-----|
E|------------------------------------------------------------------------------------------------|

0:42

G|------------------------------------------------------------------------------------------------|
D|------------------------------------------------2-----------------------2-----------2-----------|
A|3-----------3-----------3-----------3-----------------------2-----------------------------5-----|
E|------------------------------------------------------------------------------------------------|

G|------------------------------------------------------------------------------------------------|
D|------------------------------------------------5-----------------------5-----------5-----------|
A|3-----------0-----------5-----------5-----------------------5-----------------------------------|
E|------------------------------------------------------------------------------------------------|

0:55

G|------------------------------------------------------------------------------------------------|
D|7-----------------7-----------------------------7-----------------7-----7-----------------7-----|
A|------------------------5-----------------5-----------------------------------------------------|
E|------------------------------------------------------------------------------------------------|

G|------------------------------------------------------------------------------------------------|
D|7-----------------7-----7-----------------7-----5-----------------------5-----------------------|
A|------------------------------------------------------------5-----------------------5-----------|
E|------------------------------------------------------------------------------------------------|

1:09

G|------------------------------------------------------------------------------------------------|
D|7-----------------7-----------------------------7-----------------7-----7-----------------7-----|
A|------------------------5-----------------5-----------------------------------------------------|
E|------------------------------------------------------------------------------------------------|

G|------------------------------------------------------------------------------------------------|
D|7-----------------7-----7-----------------7-----5-----------------------------------------------|
A|------------------------------------------------------------5-----------0-----------6-----------|
E|------------------------------------------------------------------------------------------------|

1:23

G|------------------------------------------------------------------------------------------------|
D|5-----------5-----------5-----------5-----------5-----------5-----------5-----------5-----------|
A|------------------------------------------------------------------------------------------------|
E|------------------------------------------------------------------------------------------------|

G|------------------------------------------------------------------------------------------------|
D|5-----------5-----------5-----------5-----------5-----------5-----4-----2-----------2-----------|
A|------------------------------------------------------------------------------------------5-----|
E|------------------------------------------------------------------------------------------------|

1:36

G|------------------------------------------------------------------------------------------------|
D|------------------------------------------------2-----------------------2-----------2-----------|
A|3-----------3-----------3-----------3-----------------------2-----------------------------5-----|
E|------------------------------------------------------------------------------------------------|

G|------------------------------------------------------------------------------------------------|
D|------------------------------------------------5-----------------------5-----------------------|
A|3-----------0-----------5-----------5-----------------------5-----------------------5-----------|
E|------------------------------------------------------------------------------------------------|

1:49

G|------------------------------------------------------------------------------------------------|
D|------------------------------------------------2-----2-----------2-----2-----2-----------2-----|
A|3-----3-----------3-----3-----3-----------3-----------------------------------------------------|
E|------------------------------------------------------------------------------------------------|

G|------------------------------------------------------------------------------------------------|
D|------------2-----------------------------------------------------------------------------------|
A|0-----------------------0-----------0-----------5-----------0-----------5-----------5-----------|
E|------------------------------------------------------------------------------------------------|

G|------------------------------------------------------------------------------|
D|5-----------------------7-----------------------5-----------------------5-----|
A|------------5-----------------------5-----------------------5-----------------|
E|------------------------------------------------------------------------------|

Almost there ...

Sign in to get your own page with links to favourite songs and more. You are just one click away...

Login with Facebook Login with Google