Log in

One click and you are in

Login with Facebook Login with Google

Why sign up and log in

Guitar Tabs Explorer
The Tymes bass tabs for The twelfth of never

Bass tabs

Tuning: Standard (E A D G)

Difficulty: Novice


Tuning: EADG

G|------------------------------------------------------------|
D|------------------------------------------------------------|
A|------------------------------------------------------------|
E|1-----------1-------1-------1---------------1-------1-------|

0:05

G|----------------------------------------------------------------|
D|3---------------3---------------3---------------3---------------| x2
A|----------------------------------------------------------------|
E|----------------------------------------------------------------|

G|----------------------------------------------------------------|
D|--------------------------------3---------------3---------------|
A|3---------------3-----------------------------------------------|
E|----------------------------------------------------------------|

G|----------------------------------------------------------------|
D|3---------------3-----------------------------------------------|
A|--------------------------------3---------------3---------------|
E|----------------------------------------------------------------|

0:27

G|----------------------------------------------------------------|
D|--------------------------------3---------------3---------------|
A|3---------------3-----------------------------------------------|
E|----------------------------------------------------------------|

G|----------------------------------------------------------------|
D|3---------------3---------------3---------------2---------------|
A|----------------------------------------------------------------|
E|----------------------------------------------------------------|

G|----------------------------------------------------------------|
D|0---------------0-----------------------------------------------|
A|------------------------3-------1---------------1---------------|
E|----------------------------------------------------------------|

G|----------------------------------------------------------------|
D|--------------------------------3---------------3-------3-------|
A|----------------3-----------------------------------------------|
E|3---------------------------------------------------------------|

0:49

G|----------------------------------------------------------------|
D|5---5-------5-------------------3---3-------3---3-------3-------| x2
A|----------------3-------3---------------------------------------|
E|----------------------------------------------------------------|

G|----------------------------------------------------------------|
D|2---2-------2-------------------0---0-------0---0-------0-------|
A|----------------0-------0---------------------------------------|
E|----------------------------------------------------------------|

G|----------------------------------------------------------------|
D|5---------------------------------------5---------------2-------|
A|--------------------------------3---------------3---------------|
E|----------------------------------------------------------------|

1:11

G|----------------------------------------------------------------|
D|3---------------3---------------3---------------3---------------| x2
A|----------------------------------------------------------------|
E|----------------------------------------------------------------|

G|----------------------------------------------------------------|
D|--------------------------------3---------------3---------------|
A|3---------------3-----------------------------------------------|
E|----------------------------------------------------------------|

G|----------------------------------------------------------------|
D|3---------------3-----------------------------------------------|
A|--------------------------------3---------------3-------3-------|
E|----------------------------------------------------------------|

1:33

G|----------------------------------------------------------------|
D|--------------------------------3---------------3---------------|
A|3---------------3-----------------------------------------------|
E|----------------------------------------------------------------|

G|----------------------------------------------------------------|
D|3---------------3---------------3---------------2---------------|
A|----------------------------------------------------------------|
E|----------------------------------------------------------------|

G|----------------------------------------------------------------|
D|0---------------0-----------------------------------------------|
A|------------------------3-------1---------------1---------------|
E|----------------------------------------------------------------|

G|----------------------------------------------------------------|
D|--------------------------------3---------------3-------2-------|
A|----------------3-----------------------------------------------|
E|3---------------------------------------------------------------|

1:55

G|----------------------------------------------------------------|
D|0---------------0-----------------------------------------------|
A|------------------------3-------1---------------1---------------|
E|----------------------------------------------------------------|

G|----------------------------------------------------------------|
D|----------------------------------------------------------------|
A|--------------------------------3---------------3---------------|
E|3---------------3-----------------------------------------------|

G|----------------------------------------------------------------|
D|3---------------3---------------3---------------3---------------|
A|----------------------------------------------------------------|
E|----------------------------------------------------------------|

G|------------------------------------|
D|3---------------3-------------------|
A|------------------------------------|
E|--------------------------------1---|

Almost there ...

Sign in to get your own page with links to favourite songs and more. You are just one click away...

Login with Facebook Login with Google