Log in

One click and you are in

Login with Facebook Login with Google

Why sign up and log in

Guitar Tabs Explorer
The Tymes bass tabs for The lamp is low

Bass tabs

Tuning: Standard (E A D G)

Difficulty: Novice


Tuning: EADG

0:16

G|------------------------------------------------------------------------------------------------|
D|------------------------------------------------------------------------------------------------|
A|------------------------5-----------5-----------------------------------5-----------5-----------|
E|5-----------5-----------------------------------5-----------5-----------------------------------|

G|------------------------------------------------------------------------------------------------|
D|5-----------5-----------5-----------------2-----5-----------------------5-----------------5-----|
A|------------------------------------3-----------------------5-----------------------5-----------|
E|------------------------------------------------------------------------------------------------|

G|------------------------------------------------------------------------------------------------|
D|----------------------------------------------------------------------------5-5-----5-----5-----|
A|5---------5-5-----5---------5-5-----5-----------5---------5-5-----5-----------------------------|
E|------------------------------------------------------------------------------------------------|

0:38

G|------------------------------------------------------------------------------------------------|
D|------------5-----------------------5-----------------------------------5-----------------------|
A|3-----------------------3-----------------7-----6-----------3-----------------------6-----3-----|
E|------------------------------------------------------------------------------------------------|

G|------------------------------------------------------------------------------------------------|
D|------------------------------------------------------------------------------------------------|
A|------------------------5-----------5-----------------------------7-----5-----------5-----------|
E|5-----------5-----------------------------------5-----------5-----------------------------------|

0:52

G|------------------------------------------------------------------------------------------------|
D|------------------------------------------------------------------------------------------------|
A|7-----------------------7-----------7-----------------------3-----6-----5-----------5-----------|
E|------------7-----------------------------7-----5-----------------------------------------------|

G|------------------------------------------------------------------------------------------------|
D|5-----------------------7-----------------------5-----------------------7-----------------------|
A|------------------5-----------------------5-----------------------5-----------------------5-----|
E|------------------------------------------------------------------------------------------------|

1:07

G|------------------------------------------------------------------------------------------------|.
D|7-----------7-----------------------------------7-----------7-----------------------------------|.
A|------------------------5-----------5-----------------------------------5-----------5-----------|.
E|------------------------------------------------------------------------------------------------|.
                                                  . x2
G|------------------------------------------------------------------------------------------------|.
D|5-----------------------7-----------------------5-----------------------5-----------------5-----|.
A|------------------5-----------------------5-----------------------5-----------------5-----------|.
E|------------------------------------------------------------------------------------------------|.

G|------------------------------------------------------------------------------------------------|
D|----------------------------------------------------------------------------5-5-----5-----5-----|
A|5---------5-5-----5---------5-5-----5-----------5---------5-5-----5-----------------------------|
E|------------------------------------------------------------------------------------------------|

1:44

G|------------------------------------------------------------------------------------------------|
D|------------5-----------------------5-----------------------------------5-----------------------|
A|3-----------------------3-----------------7-----6-----------3-----------------------6-----3-----|
E|------------------------------------------------------------------------------------------------|

G|------------------------------------------------------------------------------------------------|
D|------------------------------------------------------------------------------------------------|
A|------------------------5-----------5-----------------------------7-----5-----------5-----------|
E|5-----------5-----------------------------------5-----------5-----------------------------------|

1:59

G|------------------------------------------------------------------------------------------------|
D|------------------------------------------------------------------------------------------------|
A|7-----------------------7-----------7-----------------------3-----6-----5-----------5-----------|
E|------------7-----------------------------7-----5-----------------------------------------------|

Until fadeout.

G|------------------------------------------------------------------------------------------------|
D|5-----------------------7-----------7-----------5-----------------------7-----------7-----------|
A|------------5-----------------------------5-----------------5-----------------------------5-----|
E|------------------------------------------------------------------------------------------------|

Almost there ...

Sign in to get your own page with links to favourite songs and more. You are just one click away...

Login with Facebook Login with Google