Log in

One click and you are in

Login with Facebook Login with Google

Why sign up and log in

Guitar Tabs Explorer
The Tymes bass tabs for Stranger in paradise

Bass tabs

Tuning: Standard (E A D G)

Difficulty: Novice


Tuning: EADG

G|----------------------------------------------------------------|
D|2-----------2---2-------2-------------------------------7-------|
A|--------------------------------0-----------0---0---------------|
E|----------------------------------------------------------------|

G|----------------------------------------------------------------|
D|5-----------5---5-------5---------------------------------------|
A|--------------------------------3---------------3---------------|
E|----------------------------------------------------------------|

0:10

G|----------------------------------------------------------------|
D|5-----------5---5-----------5---------------------------5-------|
A|--------------------------------3-----------3---3-----------3---|
E|----------------------------------------------------------------|

G|----------------------------------------------------------------|
D|3-----------------------3---2---------------------------7-------|
A|------------3---3---------------5-----------5---5---------------|
E|----------------------------------------------------------------|

G|----------------------------------------------------------------|
D|5-----------5---5-------------------------------5---------------|
A|----------------------------5---3-----------3-----------3-------|
E|----------------------------------------------------------------|

G|----------------------------------------------------------------|
D|3---------------------------2---3---------------3-------3-------|
A|------------3---3---------------------------3-------------------|
E|----------------------------------------------------------------|

0:28

G|----------------------------------------------------------------|
D|5-----------5---5-------------------------------5---------------|
A|----------------------------5---3-----------3-----------3-------|
E|----------------------------------------------------------------|

G|----------------------------------------------------------------|
D|3-----------3---3-----------2-------------------7-------3-------|
A|--------------------------------5-----------5-------------------|
E|----------------------------------------------------------------|

G|----------------------------------------------------------------|
D|5-----------5---5-------5-----------------------5---------------|
A|----------------------------5---3-----------3-----------3-------|
E|----------------------------------------------------------------|

G|----------------------------------------------------------------|
D|3-----------3---------------5---3-------------------------------|
A|----------------6-------6---------------------------------------|
E|----------------------------------------------------------------|

G|----------------------------------------------------------------|
D|----------------6-------6---------------------------------------|
A|4-----------4-------------------4-------------------------------|
E|----------------------------------------------------------------|

0:51

G|----------------------------------------------------------------|
D|4-----------4-------------------4---------------4-------4-------|
A|----------------4-------4-------------------4---------------4---|
E|----------------------------------------------------------------|

G|----------------------------------------------------------------|
D|--------------------------------3-----------3---3-------3-------|
A|3-----------3---3-------3---------------------------------------|
E|----------------------------------------------------------------|

G|----------------------------------------------------------------|
D|------------3---------------3-----------------------------------|
A|1---------------1---------------1-----------1---1-------1-------|
E|----------------------------------------------------------------|

G|----------------------------------------------------------------|
D|----------------2-------2---------------------------------------|
A|0-------------------------------0-----------0---2-------4-------|
E|----------------------------------------------------------------|

1:09

G|----------------------------------------------------------------|
D|----------------------------------------------------------------|
A|5-----------5---0-------0-------5-----------5---5-------5-------|
E|----------------------------------------------------------------|

G|----------------------------------------------------------------|
D|5---------------5-------5---------------------------------------|
A|--------------------------------3-----------3---3-------3-------|
E|----------------------------------------------------------------|

G|----------------------------------------------------------------|
D|3-----------------------3---------------------------------------|
A|----------------3---------------5-------------------------------|
E|----------------------------------------------------------------|

1:23

G|----------------------------------------------------------------|
D|5-----------5---5-----------5---------------------------5-------|
A|--------------------------------3-----------3---3-----------3---|
E|----------------------------------------------------------------|

G|----------------------------------------------------------------|
D|3-----------------------3---2---------------------------7-------|
A|------------3---3---------------5-----------5---5---------------|
E|----------------------------------------------------------------|

G|----------------------------------------------------------------|
D|5-----------5---5-------------------------------5---------------|
A|----------------------------5---3-----------3-----------3-------|
E|----------------------------------------------------------------|

G|----------------------------------------------------------------|
D|3-----------3---3-------2---------------------------------------|
A|--------------------------------5-------------------------------|
E|----------------------------------------------------------------|

1:41

G|----------------------------------------------------------------|
D|----------------------------------------------------------------|
A|2-----------2---2-------2-------1-----------1---3-------3-------|
E|----------------------------------------------------------------|

G|----------------------------------------------------------------|
D|----------------------------2-----------------------------------|
A|0-----------0---0-------0-------5-----------5---5-------5-------|
E|----------------------------------------------------------------|

G|----------------------------------------------------------------|
D|5-----------5---5-------5-------------------5---------------2---|
A|--------------------------------3---------------3-------3-------|
E|----------------------------------------------------------------|

G|----------------------------------------------------------------|
D|3-----------3---3---------------3---------------3-----3---------|
A|----------------------------3-------------------------------0---|
E|----------------------------------------------------------------|

1:59

G|----------------------------------------------------------------|
D|----------------------------------------------------------------|
A|2-----------2---2-------2-------1-----------1---3-------3-------|
E|----------------------------------------------------------------|

G|----------------------------------------------------------------|
D|----------------------------2-----------------------------------|
A|0-----------0---0-------0-------5-----------5---5-------5-------|
E|----------------------------------------------------------------|

G|----------------------------------------------------------------|
D|5-----------5---5-------5-------------------5---------------2---|
A|--------------------------------3---------------3-------3-------|
E|----------------------------------------------------------------|

G|----------------------------------------------------------------|
D|3-----------3---3-------3-----------------------------------5---|
A|--------------------------------6-----------6---6-------6-------|
E|----------------------------------------------------------------|

G|--------------------------------------------------------------------|
D|3-----------3---3-------3-----------------------------------5---3---|
A|--------------------------------6-----------6---6-------6-----------|
E|--------------------------------------------------------------------|

Almost there ...

Sign in to get your own page with links to favourite songs and more. You are just one click away...

Login with Facebook Login with Google