Log in

One click and you are in

Login with Facebook Login with Google

Why sign up and log in

Guitar Tabs Explorer
The Tymes bass tabs for Sleep tight my darling

Bass tabs

Tuning: Standard (E A D G)

Difficulty: Novice


Tuning: EADG

0:05

G|----------------------------------------------------------------|
D|----------------------------------------------------------------| x2
A|4-------------------------------4-------------------------------|
E|------------4---4-------4-------------------4---4-------4-------|

G|----------------------------------------------------------------|
D|----------------4-------4-----------------------4-------4-------|
A|4-----------4-------------------4-----------4-------------------|
E|----------------------------------------------------------------|

G|----------------------------------------------------------------|
D|----------------6-------6-------------------6---3---------------|
A|4-----------4-------------------4-----------------------5-------|
E|----------------------------------------------------------------|

0:24

G|----------------------------------------------------------------|
D|------------------------6---------------------------------------|
A|6---------------6---------------4---------------4-------4-------|
E|----------------------------------------------------------------|

G|----------------------------------------------------------------|
D|6-----------------------6-----------------------3-------6-------|
A|----------------6---------------4-----------4-------------------|
E|----------------------------------------------------------------|

G|----------------------------------------------------------------|
D|----------------6-------6-------3-------------------------------|
A|6-----------------------------------------------1-------1-------|
E|----------------------------------------------------------------|

G|--------------------------------|
D|--------------------------------|
A|6-------------------------------|
E|----------------4-------4-------|

G|----------------------------------------------------------------|
D|----------------------------------------------------------------|
A|4-------------------------------4-------------------------------|
E|------------4---4-------4-------------------4---4-------4-------|

0:45

G|----------------------------------------------------------------|
D|----------------------------------------------------------------| x2
A|4-------------------------------4-------------------------------|
E|------------4---4-------4-------------------4---4-------4-------|

G|----------------------------------------------------------------|
D|----------------4-------4-----------------------4-------4-------|
A|4-----------4-------------------4-----------4-------------------|
E|----------------------------------------------------------------|

G|----------------------------------------------------------------|
D|----------------6-------6-------------------6---3---------------|
A|4-----------4-------------------4-----------------------5-------|
E|----------------------------------------------------------------|

1:04

G|----------------------------------------------------------------|
D|------------------------6---------------------------------------|
A|6---------------6---------------4---------------4-------4-------|
E|----------------------------------------------------------------|

G|----------------------------------------------------------------|
D|6-----------------------6-----------------------3-------6-------|
A|----------------6---------------4-----------4-------------------|
E|----------------------------------------------------------------|

G|----------------------------------------------------------------|
D|----------------6-------6-------3-------------------------------|
A|6-----------------------------------------------1-------1-------|
E|----------------------------------------------------------------|

G|----------------------------------------------------------------|
D|----------------------------------------------------------------|
A|6-------------------------------4-----------4-------------------|
E|----------------4-------4-----------------------5-------5-------|

1:22

G|----------------------------------------------------------------|
D|--------------------------------------------7---7-------7-------|
A|5-------------------------------5-------------------------------|
E|----------------5-------5---------------------------------------|

G|----------------------------------------------------------------|
D|------------------------7-------------------------------7-------|
A|5-------------------------------5-------------------------------|
E|------------5---5---------------------------5---5---------------|

G|----------------------------------------------------------------|
D|----------------5-------5-----------------------5-------5-------|
A|5-----------5-------------------5-----------5-------------------|
E|----------------------------------------------------------------|

G|----------------------------------------------------------------|
D|----------------7-------------------------------4-------7-------|
A|5-----------5-------------------5-----------5-------------------|
E|------------------------5---------------------------------------|

1:40

G|----------------------------------------------------------------|
D|------------------------7---------------------------------------|
A|7---------------7---------------5---------------5--------5------|
E|----------------------------------------------------------------|

G|----------------------------------------------------------------|
D|7-----------------------7-----------------------4-------7-------|
A|----------------7---------------5-----------5-------------------|
E|----------------------------------------------------------------|

G|----------------------------------------------------------------|
D|----------------7-------7-------4-------------------------------|
A|7-----------------------------------------------2-------2-------|
E|----------------------------------------------------------------|

G|--------------------------------|
D|--------------------------------|
A|7-------------------------------|
E|----------------5-------5-------|

1:56 Until fadeout.

G|----------------------------------------------------------------|
D|----------------------------------------------------------------|
A|5-------------------------------5-------------------------------|
E|------------5---5-------5-------------------5---5-------5-------|

Almost there ...

Sign in to get your own page with links to favourite songs and more. You are just one click away...

Login with Facebook Login with Google