Log in

One click and you are in

Login with Facebook Login with Google

Why sign up and log in

Guitar Tabs Explorer
The Tymes bass tabs for My summer love

Bass tabs

Tuning: Standard (E A D G)



Tuning: EADG

G|----------------------------------------------------------------|
D|----------------3-------------------------------3-------3---1---|
A|3-------------------------------3-------------------------------|
E|----------------------------------------------------------------|

G|----------------------------------------------------------------|
D|0---------------5-----------5---0---------------5-----------5---|
A|----------------------------------------------------------------|
E|----------------------------------------------------------------|

G|----------------------------------------------------------------|
D|----------------------------------------------------------------|
A|3---------------------------------------------------------------|
E|--------------------------------3-------------------------------|

0:17

G|----------------------------------------------------------------|
D|----------------3-----------3---------------5---3---------------|
A|3-----------3-------------------3-----------------------0---3---|
E|----------------------------------------------------------------|

G|------------------------3---2-----------------------------------|
D|----------------3---------------5-----------5-------------------|
A|1-----------1-----------------------------------3---------------|
E|----------------------------------------------------------------|

G|----------------------------------------------------------------|
D|----------------3-------------------------------3---------------|
A|3-----------3---------------0---3-----------3-----------3-------|
E|----------------------------------------------------------------|

G|----------------------------------------------------------------|
D|--------------------------------------------------------5-------|
A|0---------------1-----------0-----------------------------------|
E|--------------------------------3---------------------------3---|

0:38

G|----------------------------------------------------------------|
D|----------------3-----------3---------------5---3-------3-------|
A|3-----------3-------------------3---------------------------3---|
E|----------------------------------------------------------------|

G|------------------------3---2-----------------------------------|
D|----------------3---------------5-----------5-------------------|
A|1-----------1-----------------------------------3---------------|
E|----------------------------------------------------------------|

G|----------------------------------------------------------------|
D|----------------3-------------------------------3---------------|
A|3-----------3---------------0---3-----------3-----------3-------|
E|----------------------------------------------------------------|

G|----------------------------------------------------------------|
D|----------------------------5---3-----------------------0-------|
A|0---------------1---------------------------3---1---------------|
E|----------------------------------------------------------------|

0:59

G|----------------------------3---------------------------3-------|
D|1-----------------------1-------4-----------3---1-----------4---|
A|------------3---1-----------------------------------------------|
E|----------------------------------------------------------------|

G|3-----------------------3---------------------------------------|
D|------------3---------------3---------------3---3-----------0---|
A|----------------1---------------1-----------------------1-------|
E|----------------------------------------------------------------|

G|----------------3---------------------------3-------------------|
D|1-----------1-----------5---1---1---------------4-----------1---|
A|----------------------------------------------------------------|
E|----------------------------------------------------------------|

G|----------------------------------------------------------------|
D|0-----------0-----------------------------------------------5---|
A|----------------4-----------4---3-------------------------------|
E|------------------------------------------------3---------------|

1:19

G|----------------------------------------------------------------|
D|----------------3-----------3---------------5---3-----------3---|
A|3-----------3-------------------3-----------------------3-------|
E|----------------------------------------------------------------|

G|------------------------3---2-----------------------------------|
D|----------------3---------------5-----------5-------------------|
A|1-----------1-----------------------------------3---------------|
E|----------------------------------------------------------------|

G|----------------------------------------------------------------|
D|----------------3-------------------------------3---------------|
A|3-----------3---------------0---3-----------3-----------3-------|
E|----------------------------------------------------------------|

G|----------------------------------------------------------------|
D|----------------------------5---3-----------------------0-------|
A|0---------------1---------------------------3---1---------------|
E|----------------------------------------------------------------|

1:40

G|----------------------------3---------------------------3-------|
D|1-----------------------1-------4-----------1---1-----------4---|
A|------------3---1-----------------------------------------------|
E|----------------------------------------------------------------|

G|3-----------------------3---------------------------------------|
D|------------3---------------3---------------0---3-----------0---|
A|----------------1---------------1-----------------------1-------|
E|----------------------------------------------------------------|

G|----------------3---------------------------3-------------------|
D|1-----------1-----------5---1---1---------------4-----------1---|
A|----------------------------------------------------------------|
E|----------------------------------------------------------------|

G|----------------------------------------------------------------|
D|0-----------0-----------------------------------------------5---|
A|----------------4-----------4---3-------------------------------|
E|------------------------------------------------3---------------|

2:00

G|----------------------------------------------------------------|
D|----------------3-----------3---------------5---3-----------3---|
A|3-----------3-------------------3-----------------------3-------|
E|----------------------------------------------------------------|

G|------------------------3---2-----------------------------------|
D|----------------3---------------5-----------5-------------------|
A|1-----------1-----------------------------------3---------------|
E|----------------------------------------------------------------|

G|----------------------------------------------------------------|
D|----------------3-------------------------------3---------------|
A|3-----------3---------------0---3-----------3-----------3-------|
E|----------------------------------------------------------------|

G|--------------------------------|
D|--------------------------------|
A|0-------------------------------|
E|--------------------------------|

G|------------------------------------------------------------------------|
D|--------------------------------1---------------1-----------------------|
A|1---------------1---------------------------------------------------1---|
E|------------------------------------------------------------------------|

Almost there ...

Sign in to get your own page with links to favourite songs and more. You are just one click away...

Login with Facebook Login with Google