Log in

One click and you are in

Login with Facebook Login with Google

Why sign up and log in

Guitar Tabs Explorer
The Tymes bass tabs for Im always chasing rainbows

I'm Always Chasing Rainbows bass tab - The Tymes

The Tymes bass tabs for Im always chasing rainbows

Bass tabs

Tuning: Standard (E A D G)

Difficulty: Novice


Tuning: EADG

0:04

G|------------------------------------------------------------------------------------------------|
D|------------------------------------------------------------------------------------------------|
A|------------------------------------------------------------------------2-----------2-----------|
E|3-----------3-----------3-----------3-----------3-----------3-----------------------------------|

G|------------------------------------------------------------------------------------------------|
D|------------------------------------------------------------------------------------------------|
A|0-----------------------------------------------0-----------0-----------5-----------5-----------|
E|------------3-----------2-----------3-----------------------------------------------------------|

0:21

G|------------------------------------------------------------------------------------------------|
D|2-----------------------2-----------2-----------------------2-----------------------------2-----|
A|------------2-----------------------------------0-----------------------0-----------0-----------|
E|------------------------------------------------------------------------------------------------|

G|------------------------------------------------------------------------------------------------|
D|------------2-----------------------------2-----------------------------------------------------|
A|0-----------------------0-----------0-----------5-----------0-----------5-----------------------|
E|-----------------------------------------------------------------------------------0------2-----|

0:37

G|------------------------------------------------------------------------------------------------|
D|------------------------------------------------------------------------------------------------|
A|------------------------------------------------3-----------------------3-----------------3-----|
E|3-----3-----------3-----3-----3-----------3-----------------3-----------------------3-----------|

G|------------------------------------------------------------------------------------------------|
D|2-----2-----------2-----2-----2-----------2-----------------------------------------------------|
A|------------------------------------------------0------------6----------5-----------------------|
E|------------------------------------------------------------------------------------0-----2-----|

0:54

G|------------------------------------------------------------------------------------------------|
D|------------------------------------------------5-----------3-----------2-----------------------|
A|------------5-----------3-----------3-----------------------------------------------------2-----|
E|3-----------------------------------------------------------------------------------4-----------|

G|------------------------------------------------------------------------------------------------|
D|------------2-----1-----0-----------0-----------------------------------------------3-----------|
A|0-----------------------------------------------------------5-----------6-----------------6-----|
E|------------------------------------------------3-----------------------------------------------|

1:11

G|------------------------------------------------------------------------------------------------|
D|------------------------------------------------------------------------------------------------|
A|------------6-----------------------4-----------------------6-----------------------6-----------|
E|4-----------------------4-----------------------4-----------------------4-----------------------|

G|------------------------------------------------------------------------------------------------|
D|------------------------------------------------------------------------------------------5-----|
A|7-----------6-----------4-----------6-----------------------------4-----6-----------6-----------|
E|------------------------------------------------6-----------6-----------------------------------|

1:28

G|------------------------------------------------------------------------------------------------|
D|3-----------------------------------------3-----------------3-----------------------------3-----|
A|------------3-----------3-----------3-----------1-----------------------1-----------4-----------|
E|------------------------------------------------------------------------------------------------|

G|------------------------------------------------------------------------------------------------|
D|------------------------3-----------------------------------------------------------------------|
A|1-----------1-----------------------1-----------1-----------1-----------6-----------------6-----|
E|------------------------------------------------------------------------------------6-----------|

1:45

D|------------------------------------------------------------------------------------------------|
G|------------------------------------------------------------------------------------------------|
A|------------------------------------------------4-----------------------4-----------------4-----|
E|4-----4-----------4-----4-----4-----------4-----------------4-----------------------4-----------|

G|------------------------------------------------------------------------------------------------|
D|3-----3-----------3-----3-----3-----------3-----------------2-----------1-----------------------|
A|------------------------------------------------1-----------------------------------------------|
E|------------------------------------------------------------------------------------3-----3-----|

2:02

G|------------------------------------------------------------------------------------------------|
D|------------------------------------------------------------------------------------------------|
A|------------6-----------4-----------4-----------------------------------------------0-----3-----|
E|4-----------------------------------------------4-----------2----------1------------------------|

G|------------------------------------------------|
D|------------3-----2-----1-----------1-----------|
A|1-----------------------------------------------|
E|------------------------------------------------|

2:14

G|------------------------------------------------------------------------------------------------|
D|------------------------------------------------------------------------------------------------|
A|------------6-----------4-----------4-----------------------6-----------------------6-----------|
E|4-----------------------------------------------4-----------------------4-----------------------|

G|------------------------------------------------------------------------------------|
D|------------------------------------------------------------------------------------|
A|------------------------------------6-----------------------------------------------|
E|4-----------4-----------6-------------------------4---------------------------4-----|

Almost there ...

Sign in to get your own page with links to favourite songs and more. You are just one click away...

Login with Facebook Login with Google