Log in

One click and you are in

Login with Facebook Login with Google

Why sign up and log in

Guitar Tabs Explorer
The Tymes bass tabs for Goodnight my love

Bass tabs

Tuning: Standard (E A D G)



Tuning: EADG

0:12

G|------------------------------------------------|
D|6-----------------------6-----------------------|
A|--------------------------------------------3---|
E|------------------------------------------------|

G|------------------------------------------------------------------------------------------------|
D|------------------------------------------------------------------------6-----------6-------4---|
A|4-------------------3---------------------------6-----------------------------------------------|
E|------------------------6-----------------------------------------------------------------------|

G|------------------------------------------------------------------------------------------------|
D|3-------------------3---------------------------------------------------6-----------------------|
A|------------------------1-------------------1---6-------------------------------------------3---|
E|----------------------------------------------------------------------------------------6-------|

0:28

G|------------------------------------------------------------------------------------------------|
D|--------------------------------------------------------------------8---6-----------4-----------|
A|4-------------------------------------------8---6-----------------------------------------------|
E|------------------------6-----------------------------------------------------------------------|

G|------------------------------------------------------------------------------------------------|
D|3-------------------3-----------------------3---------------------------6-----------------------|
A|------------------------1---------------4-------6-------------------6-----------------------3---|
E|------------------------------------------------------------------------------------4-----------|

0:41

G|------------------------------------------------------------------------------------------------|
D|------------------------------------------------------------------------6-----------6-------4---|
A|4-------------------3---------------------------6-----------------------------------------------|
E|------------------------6-----------------------------------------------------------------------|

G|------------------------------------------------------------------------------------------------|
D|3-------------------3---------------------------------------------------6-----------------------|
A|------------------------1-------------------1---6-------------------------------------------3---|
E|----------------------------------------------------------------------------------------6-------|

0:54

G|------------------------------------------------------------------------------------------------|
D|--------------------------------------------------------------------8---6-----------6-----------|
A|4-------------------------------------------8---6-----------------------------------------------|
E|------------------------6-----------------------------------------------------------------------|

G|------------------------------------------------------------------------------------------------|
D|--------------------3---4-------------------6---------------------------------------------------|
A|4---------------6-------------------------------4---------------6---4---3-----------3-----------|
E|------------------------------------------------------------------------------------------------|

1:06

G|------------------------------------------------------------------------------------------------|
D|3-----------------------------------------------3-----------------------------------------------|
A|------------------------3-----------------------------------------------3-----------------------|
E|------------------------------------------------------------------------------------------------|

G|------------------------------------------------------------------------------------------------|
D|3-----------------------------------------------3-------------------3---3-----------------------|
A|------------------------3-----------3-----------------------------------------------6-----------|
E|------------------------------------------------------------------------------------------------|

1:19

G|------------------------------------------------------------------------------------------------|
D|6-----------------------------------------------6-----------------------------------------------|
A|------------------------6-----------------------------------------------6-----------------------|
E|------------------------------------------------------------------------------------------------|

G|--------------------------------------------------------------------3---------------------------|
D|6---------------------------------------------------------------4-------6-----------------------|
A|------------------------6-----------------------6-------------------------------------------3---|
E|------------------------------------------------------------------------------------4---6-------|

1:32

G|------------------------------------------------------------------------------------------------|
D|------------------------------------------------------------------------6-----------6-------4---|
A|4-------------------3---------------------------6-----------------------------------------------|
E|------------------------6-----------------------------------------------------------------------|

G|------------------------------------------------------------------------------------------------|
D|3-------------------3---------------------------------------------------6-----------------------|
A|------------------------1-------------------1---6-------------------------------------------3---|
E|----------------------------------------------------------------------------------------6-------|

1:45

G|------------------------------------------------------------------------------------------------|
D|--------------------------------------------------------------------8---6-----------6-----------|
A|4-------------------------------------------8---6-----------------------------------------------|
E|------------------------6-----------------------------------------------------------------------|

G|--------------------------------------------------------------------------------------------------------|
D|------------------------------------------------------------------------6-------------------------------|
A|4-------------------3---------------------------6---------------------------------------------------4---|
E|------------------------6-------------------------------------------------------------------------------|

Almost there ...

Sign in to get your own page with links to favourite songs and more. You are just one click away...

Login with Facebook Login with Google