Log in

One click and you are in

Login with Facebook Login with Google

Why sign up and log in

Guitar Tabs Explorer
Tyla Yaweh guitar tabs for Tommy lee

Guitar tabs

Tuning: Standard (E A D G B E)

*this may be easier to play fingerstyle, as the string skip could cause some trouble with a pic*

Intro:

e|--------------------------------------------------------------------------------------------------|
B|-------0-----------0-----------0-----------0-----------0-----------0-----------0-----------0------|
G|-0---0---0---0---0---0---0---0---0---0---0---0---0---0---0---0---0---0---0---0---0---0---0---0----|
D|---2-------2---2-------2---0-------0---0-------0--------------------------------------------------|
A|---------------------------------------------------3-------3---3-------3---3-------3---3-------3--|
E|--------------------------------------------------------------------------------------------------|

e|--------------------------------------------------------------------------------------------------|
B|-------0-----------0-----------0-----------0-----------0-----------0-----------0-----------0------|
G|-0---0---0---0---0---0---0---0---0---0---0---0---0---0---0---0---0---0---0---0---0---0---0---0----|
D|---2-------2---2-------2---0-------0---0-------0--------------------------------------------------|
A|---------------------------------------------------3-------3---3-------3---3-------3---3-------3--|
E|--------------------------------------------------------------------------------------------------|


Chorus:


e|--------------------------------------------------------------------------------------------------|
B|-------0-----------0-----------0-----------0-----------0-----------0-----------0-----------0------|
G|-0---0---0---0---0---0---0---0---0---0---0---0---0---0---0---0---0---0---0---0---0---0---0---0----|
D|---2-------2---2-------2---0-------0---0-------0--------------------------------------------------|
A|---------------------------------------------------3-------3---3-------3---3-------3---3-------3--|
E|--------------------------------------------------------------------------------------------------|

e|--------------------------------------------------------------------------------------------------|
B|-------0-----------0-----------0-----------0-----------0-----------0-----------0-----------0------|
G|-0---0---0---0---0---0---0---0---0---0---0---0---0---0---0---0---0---0---0---0---0---0---0---0----|
D|---2-------2---2-------2---0-------0---0-------0--------------------------------------------------|
A|---------------------------------------------------3-------3---3-------3---3-------3---3-------3--|
E|--------------------------------------------------------------------------------------------------|

e|--------------------------------------------------------------------------------------------------|
B|-------0-----------0-----------0-----------0-----------0-----------0-----------0-----------0------|
G|-0---0---0---0---0---0---0---0---0---0---0---0---0---0---0---0---0---0---0---0---0---0---0---0----|
D|---2-------2---2-------2---0-------0---0-------0--------------------------------------------------|
A|---------------------------------------------------3-------3---3-------3---3-------3---3-------3--|
E|--------------------------------------------------------------------------------------------------|

e|--------------------------------------------------------------------------------------------------|
B|-------0-----------0-----------0-----------0-----------0-----------0-----------0-----------0------|
G|-0---0---0---0---0---0---0---0---0---0---0---0---0---0---0---0---0---0---0---0---0---0---0---0----|
D|---2-------2---2-------2---0-------0---0-------0--------------------------------------------------|
A|---------------------------------------------------3-------3---3-------3---3-------3---3-------3--|
E|--------------------------------------------------------------------------------------------------|



Verse 1:

e|--------------------------------------------------------------------------------------------------|
B|-------0-----------0-----------0-----------0-----------0-----------0-----------0-----------0------|
G|-0---0---0---0---0---0---0---0---0---0---0---0---0---0---0---0---0---0---0---0---0---0---0---0----|
D|---2-------2---2-------2---0-------0---0-------0--------------------------------------------------|
A|---------------------------------------------------3-------3---3-------3---3-------3---3-------3--|
E|--------------------------------------------------------------------------------------------------|

e|--------------------------------------------------------------------------------------------------|
B|-------0-----------0-----------0-----------0-----------0-----------0-----------0-----------0------|
G|-0---0---0---0---0---0---0---0---0---0---0---0---0---0---0---0---0---0---0---0---0---0---0---0----|
D|---2-------2---2-------2---0-------0---0-------0--------------------------------------------------|
A|---------------------------------------------------3-------3---3-------3---3-------3---3-------3--|
E|--------------------------------------------------------------------------------------------------|

e|--------------------------------------------------------------------------------------------------|
B|-------0-----------0-----------0-----------0-----------0-----------0-----------0-----------0------|
G|-0---0---0---0---0---0---0---0---0---0---0---0---0---0---0---0---0---0---0---0---0---0---0---0----|
D|---2-------2---2-------2---0-------0---0-------0--------------------------------------------------|
A|---------------------------------------------------3-------3---3-------3---3-------3---3-------3--|
E|--------------------------------------------------------------------------------------------------|

e|--------------------------------------------------------------------------------------------------|
B|-------0-----------0-----------0-----------0-----------0-----------0-----------0-----------0------|
G|-0---0---0---0---0---0---0---0---0---0---0---0---0---0---0---0---0---0---0---0---0---0---0---0----|
D|---2-------2---2-------2---0-------0---0-------0--------------------------------------------------|
A|---------------------------------------------------3-------3---3-------3---3-------3---3-------3--|
E|--------------------------------------------------------------------------------------------------|


Chorus:

e|--------------------------------------------------------------------------------------------------|
B|-------0-----------0-----------0-----------0-----------0-----------0-----------0-----------0------|
G|-0---0---0---0---0---0---0---0---0---0---0---0---0---0---0---0---0---0---0---0---0---0---0---0----|
D|---2-------2---2-------2---0-------0---0-------0--------------------------------------------------|
A|---------------------------------------------------3-------3---3-------3---3-------3---3-------3--|
E|--------------------------------------------------------------------------------------------------|

e|--------------------------------------------------------------------------------------------------|
B|-------0-----------0-----------0-----------0-----------0-----------0-----------0-----------0------|
G|-0---0---0---0---0---0---0---0---0---0---0---0---0---0---0---0---0---0---0---0---0---0---0---0----|
D|---2-------2---2-------2---0-------0---0-------0--------------------------------------------------|
A|---------------------------------------------------3-------3---3-------3---3-------3---3-------3--|
E|--------------------------------------------------------------------------------------------------|


Verse 2: Post Malone:

*note that the guitar starts playing at the end of line 1*

e|--------------------------------------------------------------------------------------------------|
B|--------0-----------0-----------0-----------0-----------0-----------0-----------------------------|
G|--0---0---0---0---0---0---0---0---0---0---0---0---0---0---0---0---0---0---------------------------|
D|----------------------------------------------------2-------2---2-------2-------------------------|
A|----3-------3---3-------3---3-------3---3-------3-------------------------------------------------|
E|--------------------------------------------------------------------------------------------------|

e|--------------------------------------------------------------------------------------------------|
B|--------0-----------0-----------0-----------0-----------0-----------0-----------------------------|
G|--0---0---0---0---0---0---0---0---0---0---0---0---0---0---0---0---0---0---------------------------|
D|----0-------0---0-------0-------------------------------------------------------------------------|
A|----------------------------3-------3---3-------3---3-------3---3-------3-------------------------|
E|--------------------------------------------------------------------------------------------------|

*note that the guitar part starts to fade out here*

e|--------------------------------------------------------------------------------------------------|
B|-------0-----------0-----------0-----------0-----------0-----------0-----------0-----------0------|
G|-0---0---0---0---0---0---0---0---0---0---0---0---0---0---0---0---0---0---0---0---0---0---0---0----|
D|---2-------2---2-------2---0-------0---0-------0--------------------------------------------------|
A|---------------------------------------------------3-------3---3-------3---3-------3---3-------3--|
E|--------------------------------------------------------------------------------------------------|

e|--------------------------------------------------------------------------------------------------|
B|-------0-----------0-----------0-----------0-----------0-----------0-----------0-----------0------|
G|-0---0---0---0---0---0---0---0---0---0---0---0---0---0---0---0---0---0---0---0---0---0---0---0----|
D|---2-------2---2-------2---0-------0---0-------0--------------------------------------------------|
A|---------------------------------------------------3-------3---3-------3---3-------3---3-------3--|
E|--------------------------------------------------------------------------------------------------|

*Guitar part resumes in full volume here*

e|--------------------------------------------------------------------------------------------------|
B|-------0-----------0-----------0-----------0-----------0-----------0-----------0-----------0------|
G|-0---0---0---0---0---0---0---0---0---0---0---0---0---0---0---0---0---0---0---0---0---0---0---0----|
D|---2-------2---2-------2---0-------0---0-------0--------------------------------------------------|
A|---------------------------------------------------3-------3---3-------3---3-------3---3-------3--|
E|--------------------------------------------------------------------------------------------------|

e|--------------------------------------------------------------------------------------------------|
B|-------0-----------0-----------0-----------0-----------0-----------0-----------0-----------0------|
G|-0---0---0---0---0---0---0---0---0---0---0---0---0---0---0---0---0---0---0---0---0---0---0---0----|
D|---2-------2---2-------2---0-------0---0-------0--------------------------------------------------|
A|---------------------------------------------------3-------3---3-------3---3-------3---3-------3--|
E|--------------------------------------------------------------------------------------------------|

e|--------------------------------------------------------------------------------------------------|
B|-------0-----------0-----------0-----------0-----------0-----------0-----------0-----------0------|
G|-0---0---0---0---0---0---0---0---0---0---0---0---0---0---0---0---0---0---0---0---0---0---0---0----|
D|---2-------2---2-------2---0-------0---0-------0--------------------------------------------------|
A|---------------------------------------------------3-------3---3-------3---3-------3---3-------3--|
E|--------------------------------------------------------------------------------------------------|

e|--------------------------------------------------------------------------------------------------|
B|-------0-----------0-----------0-----------0-----------0-----------0------------------------------|
G|-0---0---0---0---0---0---0---0---0---0---0---0---0---0---0---0---0---0----------------------------|
D|---2-------2---2-------2---0-------0---0-------0--------------------------------------------------|
A|---------------------------------------------------3-------3---3-------3--------------------------|
E|--------------------------------------------------------------------------------------------------|




Chorus:

e|--------------------------------------------------------------------------------------------------|
B|-------0-----------0-----------0-----------0-----------0-----------0-----------0-----------0------|
G|-0---0---0---0---0---0---0---0---0---0---0---0---0---0---0---0---0---0---0---0---0---0---0---0----|
D|---2-------2---2-------2---0-------0---0-------0--------------------------------------------------|
A|---------------------------------------------------3-------3---3-------3---3-------3---3-------3--|
E|--------------------------------------------------------------------------------------------------|

e|--------------------------------------------------------------------------------------------------|
B|-------0-----------0-----------0-----------0-----------0-----------0-----------0-----------0------|
G|-0---0---0---0---0---0---0---0---0---0---0---0---0---0---0---0---0---0---0---0---0---0---0---0----|
D|---2-------2---2-------2---0-------0---0-------0--------------------------------------------------|
A|---------------------------------------------------3-------3---3-------3---3-------3---3-------3--|
E|--------------------------------------------------------------------------------------------------|

e|--------------------------------------------------------------------------------------------------|
B|-------0-----------0-----------0-----------0-----------0-----------0-----------0-----------0------|
G|-0---0---0---0---0---0---0---0---0---0---0---0---0---0---0---0---0---0---0---0---0---0---0---0----|
D|---2-------2---2-------2---0-------0---0-------0--------------------------------------------------|
A|---------------------------------------------------3-------3---3-------3---3-------3---3-------3--|
E|--------------------------------------------------------------------------------------------------|

e|--------------------------------------------------------------------------------------------------|
B|-------0-----------0-----------0-----------0-----------0-----------0-----------0-----------0------|
G|-0---0---0---0---0---0---0---0---0---0---0---0---0---0---0---0---0---0---0---0---0---0---0---0----|
D|---2-------2---2-------2---0-------0---0-------0--------------------------------------------------|
A|---------------------------------------------------3-------3---3-------3---3-------3---3-------3--|
E|--------------------------------------------------------------------------------------------------|



Outro:

e|---------------------------------------------------------------------------|
B|--------0------------------------------------------------------------------|
G|--0---0-----0--------------------------------------------------------------|
D|----2-----2----------------------------------------------------------------|
A|---------------------------------------------------------------------------|
E|---------------------------------------------------------------------------|

Other versions of Tommy Lee

Tommy leeChords

↓ Add and view comments below ↓

What do you think about this song and these tabs?

Add your comments, questions, rant or a thumbs up below.

Almost there ...

Sign in to get your own page with links to favourite songs and more. You are just one click away...

Login with Facebook Login with Google