Log in

One click and you are in

Login with Facebook Login with Google

Why sign up and log in

Guitar Tabs Explorer
Tygers Of Pan Tang tabs for Words cut like knives

Words Cut Like Knives tab - Tygers Of Pan Tang

Tygers Of Pan Tang tabs for Words cut like knives

Guitar tabs with lyrics

Tuning: Standard (E A D G B E)


Guitar 1

     W                   S S S S S S S S S S S S S S S S
A chord diagramE MajorE||-------------------|--------------------------2-------|
A chord diagramBB||-------------------|------2---3-2---2-----2-----3-2---|
A chord diagramG+G||-------------------|----------------------------------|
A chord diagramD MajorD||-------------------|----4---4-----4-4---4---4-------4-|
A chord diagramA augmentedA||-------------------|--2---------------2---------------|
A chord diagramE MajorE||-------------------|----------------------------------|


  S S S S S S S S S S S S S S S S    S S S S S S S S S S S S S S S S
--------------------------2-------|----------------------------------|
------2---3-2---2-----2-----3-2---|----------2---------------3-2-----|
----------------------------------|------2-----2---2-----2-------2---|
----4---4-----4-4---4---4-------4-|----0---0-----0-----0---0-------0-|
--5---------------5---------------|----------------------------------|
----------------------------------|--3---------------3---------------|


                             Verse:

  S S A chord diagramE MajorE  S S S S Q    S S A chord diagramE MajorE     S S S S S S S S S S S S S S S S
----------------------0------|--------------------------2-------|
---------3--------------3----|------2---3-2---2-----2-----3-2---|
-----------0---0----------0--|----------------------------------|
------4------4---------------|----4---4-----4-4---4---4-------4-|
----2------------------------|--2---------------2---------------|
--0--------------0-----------|----------------------------------|

  S S S S S S S S S S S S S S S S    S S S S S S S S S S S S S S S S
--------------------------2-------|----------------------------------|
------2---3-2---2-----2-----3-2---|----------2---------------3-2-----|
----------------------------------|------2-----2---2-----2-------2---|
----4---4-----4-4---4---4-------4-|----0---0-----0-----0---0-------0-|
--5---------------5---------------|----------------------------------|
----------------------------------|--3---------------3---------------|


  S S A chord diagramE MajorE  S S S S S S S S S S S S    S S S S S S S S S S S S S S S S
-------------------------0-------|--------------------------2-------|
---------3-----------------3-----|------2---3-2---2-----2-----3-2---|
-----------0---0-------------0---|----------------------------------|
------4------4-------4---------4-|----4---4-----4-4---4---4-------4-|
----2--------------2---2---------|--2---------------2---------------|
--0--------------0---------------|----------------------------------|


  S S S S S S S S S S S S S S S S    S S S S S S S S S S S S S S S S
--------------------------2-------|----------------------------------|
------2---3-2---2-----2-----3-2---|----------2---------------3-2-----|
----------------------------------|------2-----2---2-----2-------2---|
----4---4-----4-4---4---4-------4-|----0---0-----0-----0---0-------0-|
--5---------------5---------------|----------------------------------|
----------------------------------|--3---------------3---------------|


                                  Chorus:

  S S S S S S S S S S S S S S S S    S S S S S S S S S S S S Q
--------------------------0-------|----------3--------------------|
----------3-----------------3-----|------------3-----------3-2----|
------------0---0-----------------|------0-------0-------2--------|
------4-------4-------4-----------|----0---0-------0---2----------|
----2---2-----------2---2---------|------------------0------------|
--0---------------0-----------0-2-|--3----------------------------|


  S S S S S S S S S S S S S S S S    S S S S S S S S S S S S S S S S
------------------2---------------|----------3-----------------------|
----------2-3-------3-2---2-3-----|------------3-----------3-2-------|
------4-------4---------------4---|------0-------0-------2-----2-----|
----4---4-------4-------4-------4-|----0---0-------0---2---------2---|
--2-------------------------------|------------------0-------------0-|
----------------------------------|--3-------------------------------|


  S S S S S S S S S S S S S S S S    S S S S S S S S S S S S S S S S
------------------2---------------|----------3-----------------------|
----------2-3-------3-2---2-3-----|------------3-----------3-2-------|
------4-------4---------------4---|------0-------0-------2-----2-----|
----4---4-------4-------4-------4-|----0---0-------0---2---------2---|
--2-------------------------------|------------------0-------------0-|
----------------------------------|--3-------------------------------|


  S S S S S S S S S S S S S S S S    S S S S S S S S S S S S S S S S
------------------2---------------|----------3-----------------------|
----------2-3-------3-2---2-3-----|------------3-----------3-2-------|
------4-------4---------------4---|------0-------0-------2-----2-----|
----4---4-------4-------4-------4-|----0---0-------0---2---------2---|
--2-------------------------------|------------------0-------------0-|
----------------------------------|--3-------------------------------|


          Interlude:

  W                   S S S S S S S S S S S S S S S S
--0----------------|--------------------------2-------|
--0----------------|------2---3-2---2-----2-----3-2---|
--1----------------|----------------------------------|
--2----------------|----4---4-----4-4---4---4-------4-|
--2----------------|--2---------------2---------------|
--0----------------|----------------------------------|


                                   Verse:

  S S S S S S S S S S S S S S S S    S S S S S S S S S S S S S S S S
--------------------------2-------|--------------------------2-------|
------2---3-2---2-----2-----3-2---|------2---3-2---2-----2-----3-2---|
----------------------------------|----------------------------------|
----4---4-----4-4---4---4-------4-|----4---4-----4-4---4---4-------4-|
--2---------------2---------------|--2---------------2---------------|
----------------------------------|----------------------------------|


  S S S S S S S S S S S S S S S S    S S S S S S S S S S S S S S S S
--------------------------2-------|----------------------------------|
------2---3-2---2-----2-----3-2---|----------2---------------3-2-----|
----------------------------------|------2-----2---2-----2-------2---|
----4---4-----4-4---4---4-------4-|----0---0-----0-----0---0-------0-|
--5---------------5---------------|----------------------------------|
----------------------------------|--3---------------3---------------|


  S S A chord diagramE MajorE  S S S S S S S S S S S S    S S S S S S S S S S S S S S S S
-------------------------0-------|--------------------------2-------|
---------3-----------------3-----|------2---3-2---2-----2-----3-2---|
-----------0---0-------------0---|----------------------------------|
------4------4-------4---------4-|----4---4-----4-4---4---4-------4-|
----2--------------2---2---------|--2---------------2---------------|
--0--------------0---------------|----------------------------------|


  S S S S S S S S S S S S S S S S    S S S S S S S S S S S S S S S S
--------------------------2-------|----------------------------------|
------2---3-2---2-----2-----3-2---|----------2---------------3-2-----|
----------------------------------|------2-----2---2-----2-------2---|
----4---4-----4-L---4---4-------4-|----0---0-----0-----0---0-------0-|
--5---------------5---------------|----------------------------------|
----------------------------------|--3---------------3---------------|


                                   Chorus:

  S S S S S S S S S S S S S S S S    S S S S S S S S S S S S Q
--------------------------0-------|----------3--------------------|
----------3-----------------3-----|------------3-----------3-2----|
------------0---0-----------------|------0-------0-------2--------|
------4-------4-------4-----------|----0---0-------0---2----------|
----2---2-----------2---2---------|------------------0------------|
--0---------------0-----------0-2-|--3----------------------------|


  S S S S S S S S S S S S S S S S    S S S S S S S S S S S S S S S S
------------------2---------------|----------3-----------------------|
----------2-3-------3-2---2-3-----|------------3-----------3-2-------|
------4-------4---------------4---|------0-------0-------2-----2-----|
----4---4-------4-------4-------4-|----0---0-------0---2---------2---|
--2-------------------------------|------------------0-------------0-|
----------------------------------|--3-------------------------------|


  S S S S S S S S S S S S S S S S    S S S S S S S S S S S S S S S S
------------------2---------------|----------3-----------------------|
----------2-3-------3-2---2-3-----|------------3-----------3-2-------|
------4-------4---------------4---|------0-------0-------2-----2-----|
----4---4-------4-------4-------4-|----0---0-------0---2---------2---|
--2-------------------------------|------------------0-------------0-|
----------------------------------|--3-------------------------------|


  S S S S S S S S S S S S S S S S    S S S S S S S S S S S S S S S S
------------------2---------------|----------3-----------------------|
----------2-3-------3-2---2-3-----|------------3-----------3-2-------|
------4-------4---------------4---|------0-------0-------2-----2-----|
----4---4-------4-------4-------4-|----0---0-------0---2---------2---|
--2-------------------------------|------------------0-------------0-|
----------------------------------|--3-------------------------------|


  S S S S S S S S S S S S S S S S    S S S S S S S S S S S S S S S S
----------0---------------0-------|----------3-----------------------|
------------0---------------3-----|------------3-----------3-2-------|
--------------0-------2-------2---|------0-------0-------2-----2-----|
------2---------2---0---0-------0-|----0---0-------0---2---------2---|
----2---2-------------------------|------------------0-------------0-|
--0---------------2---------------|--3-------------------------------|


  S S S S S S S S S S S S S S S S    S S S S S S S S S S S S S S S S
----------0---------------0-------|----------3-----------------------|
------------0---------------3-----|------------3-----------3-2-------|
--------------0-------2-------2---|------0-------0-------2-----2-----|
------2---------2---0---0-------0-|----0---0-------0---2---------2---|
----2---2-------------------------|------------------0-------------0-|
--0---------------2---------------|--3-------------------------------|


  S S S S S S S S S S S S S S S S    S S S S S S S S S S S S S S S S
----------0---------------0-------|----------3-----------------------|
------------0---------------3-----|------------3-----------3-2-------|
--------------0-------2-------2---|------0-------0-------2-----2-----|
------2---------2---0---0-------0-|----0---0-------0---2---------2---|
----2---2-------------------------|------------------0-------------0-|
--0---------------2---------------|--3-------------------------------|


  S S S S S S S S S S S S S S S S    S S S S S S A chord diagramE MajorE
----------0---------------0-------|----------3------|-----|
------------0---------------3-----|------------3----|-----|
--------------0-------2-------2---|------0-------0--|-----|
------2---------2---0---0-------0-|----0---0--------|-----|
----2---2-------------------------|-----------------|-----|
--0---------------2---------------|--3--------------|-----|


     PM PM    PM PM                       PM PM    PM PM PM
  A chord diagramE MajorE  S  S  A chord diagramE MajorE  S  S  S S S S S S A chord diagramE MajorE      A chord diagramE MajorE  S  S  A chord diagramE MajorE  S  S  S  S A chord diagramE MajorE  S S A chord diagramE MajorE
------------------------------------|-----------------------------------|
------------------------------------|-----------------------------------|
------------------------------------|-----------------------0-L--0-2-L--|
--4--------4------------------------|-----------------------0-L--0-2-L--|
--2--2--2--2--2--2--------2-5-4-L~--|--5--------5------------------0-L--|
--------------------0-2-3-----------|--3--3--3--3--3--0--2--3-L--3------|



Verse:

     PM PM    PM PM                       PM PM    PM PM PM
  A chord diagramE MajorE  S  S  A chord diagramE MajorE  S  S  S S S S S S A chord diagramE MajorE      A chord diagramE MajorE  S  S  A chord diagramE MajorE  S  S  S  S A chord diagramE MajorE  S S A chord diagramE MajorE
------------------------------------|-----------------------------------|
------------------------------------|-----------------------------------|
------------------------------------|-----------------------0-L--0-2-L--|
--4--------4------------------------|-----------------------0-L--0-2-L--|
--2--2--2--2--2--2--------2-5-4-L~--|--5--------5------------------0-L--|
--------------------0-2-3-----------|--3--3--3--3--3--0--2--3-L--3------|


     PM PM    PM PM                       PM PM    PM PM PM
  A chord diagramE MajorE  S  S  A chord diagramE MajorE  S  S  S S S S S S A chord diagramE MajorE      A chord diagramE MajorE  S  S  A chord diagramE MajorE  S  S  S  S A chord diagramE MajorE  S S A chord diagramE MajorE
------------------------------------|-----------------------------------|
------------------------------------|-----------------------------------|
------------------------------------|-----------------------0-L--0-2-L--|
--4--------4------------------------|-----------------------0-L--0-2-L--|
--2--2--2--2--2--2--------2-5-4-L~--|--5--------5------------------0-L--|
--------------------0-2-3-----------|--3--3--3--3--3--0--2--3-L--3------|


     PM PM    PM PM                       PM PM    PM PM PM
  A chord diagramE MajorE  S  S  A chord diagramE MajorE  S  S  S S S S S S A chord diagramE MajorE      A chord diagramE MajorE  S  S  A chord diagramE MajorE  S  S  S  S A chord diagramE MajorE  S S A chord diagramE MajorE
------------------------------------|-----------------------------------|
------------------------------------|-----------------------------------|
------------------------------------|-----------------------0-L--0-2-L--|
--4--------4------------------------|-----------------------0-L--0-2-L--|
--2--2--2--2--2--2--------2-5-4-L~--|--5--------5------------------0-L--|
--------------------0-2-3-----------|--3--3--3--3--3--0--2--3-L--3------|


     PM PM    PM PM                       PM PM    PM PM PM
  A chord diagramE MajorE  S  S  A chord diagramE MajorE  S  S  S S S S S S A chord diagramE MajorE      A chord diagramE MajorE  S  S  A chord diagramE MajorE  S  S  S  S A chord diagramE MajorE  S S A chord diagramE MajorE
------------------------------------|-----------------------------------|
------------------------------------|-----------------------------------|
------------------------------------|-----------------------0-L--0-2-L--|
--4--------4------------------------|-----------------------0-L--0-2-L--|
--2--2--2--2--2--2--------2-5-4-L~--|--5--------5------------------0-L--|
--------------------0-2-3-----------|--3--3--3--3--3--0--2--3-L--3------|


Guitar solo:

  Q    E.  S A chord diagramE MajorE  A chord diagramE MajorE  A chord diagramE MajorE  S S    Q    E.  S A chord diagramE MajorE  A chord diagramE MajorE  A chord diagramE MajorE  S S
--------------------------|--------------------------|
--------------------------|--3----3---3-3--3--3--3-3-|
--4----4---4-4--4--4--4-0-|--0----0---0-0--0--0--0-0-|
--4----4---4-4--4--4--4-0-|--0----0---0-0--0--0--0-0-|
--2----2---2-2--2--2--2---|--------------------------|
--------------------------|--3----3---3-3--3--3--3-3-|


  A chord diagramE MajorE  A chord diagramE MajorE  A chord diagramE MajorE  S S S S A chord diagramE MajorE  A chord diagramE MajorE  A chord diagramE MajorE     Q    E.  S A chord diagramE MajorE  A chord diagramE MajorE  A chord diagramE MajorE  S S
----------------------------|--------------------------|
----------------------------|--3----3---3-3--3--3--3-3-|
--4--4--4--4-0-2---2--2--2--|--0----0---0-0--0--0--0-0-|
--4--4--4--4-0-2---2--2--2--|--0----0---0-0--0--0--0-0-|
--2--2--2--2---0---0--0--0--|--------------------------|
-------------3--------------|--3----3---3-3--3--3--3-3-|


  Q    E.  S A chord diagramE MajorE  A chord diagramE MajorE  S E.     Q    E.  S A chord diagramE MajorE  A chord diagramE MajorE  A chord diagramE MajorE  S S
--0----0---0-0--0--0-----|--------------------------|
--0----0---0-0--0--0-3---|--3----3---3-3--3--3--3-3-|
--0----0---0-0--0--0-2---|--0----0---0-0--0--0--0-0-|
--2----2---2-2--2--2-0---|--0----0---0-0--0--0--0-0-|
--2----2---2-2--2--2-----|--------------------------|
--0----0---0-0--0--0-2---|--3----3---3-3--3--3--3-3-|


  Q    A chord diagramE MajorE  S S S S A chord diagramE MajorE  A chord diagramE MajorE  A chord diagramE MajorE     Q    E.  S A chord diagramE MajorE  A chord diagramE MajorE  A chord diagramE MajorE  S S
---------------------------|--------------------------|
---------------------------|--3----3---3-3--3--3--3-3-|
--4----4--4-0-2---2--2--2--|--0----0---0-0--0--0--0-0-|
--4----4--4-0-2---2--2--2--|--0----0---0-0--0--0--0-0-|
--2----2--2---0---0--0--0--|--------------------------|
------------3--------------|--3----3---3-3--3--3--3-3-|


  Q    A chord diagramE MajorE  S S S S A chord diagramE MajorE  S S S S    A chord diagramE MajorE  S A chord diagramE MajorE  S A chord diagramE MajorE  H
-----------------------------|--0---------3--L--------|
-----------------------------|--0----3----3--L--------|
--4----4--4-0-2---2--2-2-2-2-|-------2----0--L--------|
--4----4--4-0-2---2--2-2-2-2-|--2----0----0--L--------|
--2----2--2---0---0--0-0-0-0-|--2---------------------|
------------3----------------|--0----2----3--L--------|


                                             Outro Chorus:
  PM PM PM PM PM PM PM PM PM PM PM
  S  S  S  S  S  S  S  S  S  S  S  S S S S S    H        H
---------------------------------------------|--3-----------------|
---------------------------------------------|--3-----------------|
---------------------------------------------|--0--------2--------|
--------2--2--2--2--2--2--2--2--2--2-2-2-2-2-|--0--------2--------|
--0--0--0--0--0--0--0--0--0--0--0--0-0-0-0-0-|-----------0--------|
---------------------------------------------|--3-----------------|


  Q.     S S A chord diagramE MajorE  A chord diagramE MajorE  S S S S    H        H           Q.     S S A chord diagramE MajorE  A chord diagramE MajorE  S S S S
---------------------------|--3-----------------|---------------------------|
---------------------------|--3-----------------|---------------------------|
--4------L-4-4--4--4-4-4-4-|--0--------2--------|--4------L-4-4--4--4-4-4-4-|
--4------L-4-4--4--4-4-4-4-|--0--------2--------|--4------L-4-4--4--4-4-4-4-|
--2------L-2-2--2--2-2-2-2-|-----------0--------|--2------L-2-2--2--2-2-2-2-|
---------------------------|--3-----------------|---------------------------|


  H        H           Q.     S S A chord diagramE MajorE  A chord diagramE MajorE  S S S S    H        H
--3-----------------|---------------------------|--3-----------------|
--3-----------------|---------------------------|--3-----------------|
--0--------2--------|--4------L-4-4--4--4-4-4-4-|--0--------2--------|
--0--------2--------|--4------L-4-4--4--4-4-4-4-|--0--------2--------|
-----------0--------|--2------L-2-2--2--2-2-2-2-|-----------0--------|
--3-----------------|---------------------------|--3-----------------|


  W                   S S S S S S S S S S S S S S S S
-------------------|--------------------------2-------|
-------------------|------2---3-2---2-----2-----3-2---|
-------------------|----------------------------------|
--2----------------|----4---4-----4-----4---4-------4-|
--2----------------|--2---------------2---------------|
--0----------------|----------------------------------|


  S S S S S S S S S S S S S S S S    S S S S S S S S S S S S A chord diagramE MajorE  A chord diagramE MajorE
--------------------------2-------|--------------------------2-----|
------2---3-2---2-----2-----3-2---|------2---3-2---2-----2------3--|
----------------------------------|--------------------------------|
----4---4-----4-----4---4-------4-|----4---4-----4-----4---4-------|
--2---------------2---------------|--2---------------2-------------|
----------------------------------|--------------------------------|


  E.  S Q    H           W
----------------------|-------------------||
--2-------------------|-------------------||
----------------------|-------------------||
------4-L----L--------|--L----------------||
----------------------|-------------------||
----------------------|-------------------||





Guitar 2


     W                   W                   W
A chord diagramE MajorE||-------------------|-------------------|-------------------|
A chord diagramBB||-------------------|-------------------|-------------------|
A chord diagramG+G||-------------------|-------------------|-------------------|
A chord diagramD MajorD||-------------------|-------------------|-------------------|
A chord diagramA augmentedA||-------------------|-------------------|-------------------|
A chord diagramE MajorE||-------------------|-------------------|-------------------|


                    Verse:

  W                   W                   W                   W
-------------------|-------------------|-------------------|-------------------|
-------------------|-------------------|-------------------|-------------------|
-------------------|-------------------|-------------------|-------------------|
-------------------|-------------------|-------------------|-------------------|
-------------------|-------------------|-------------------|-------------------|
-------------------|-------------------|-------------------|-------------------|


  W                   W                   W                   W
-------------------|-------------------|-------------------|-------------------|
-------------------|-------------------|-------------------|-------------------|
-------------------|-------------------|-------------------|-------------------|
-------------------|-------------------|-------------------|-------------------|
-------------------|-------------------|-------------------|-------------------|
-------------------|-------------------|-------------------|-------------------|


                   [Chorus

  W                   W                   W                   W
-------------------|-------------------|-------------------|-------------------|
-------------------|-------------------|-------------------|-------------------|
-------------------|-------------------|-------------------|-------------------|
-------------------|-------------------|-------------------|-------------------|
-------------------|-------------------|-------------------|-------------------|
-------------------|-------------------|-------------------|-------------------|


  W                   W                   W                   W
-------------------|-------------------|-------------------|-------------------|
-------------------|-------------------|-------------------|-------------------|
-------------------|-------------------|-------------------|-------------------|
-------------------|-------------------|-------------------|-------------------|
-------------------|-------------------|-------------------|-------------------|
-------------------|-------------------|-------------------|-------------------|


[Interlude
  W                   H        Q    A chord diagramE MajorE   A chord diagramE MajorE      H          Q     A chord diagramE MajorE      S  S
-------------------|-----------------------|--------------------------------|
-------------------|-----------------------|--14b---------L-----Lpbr-----12-|
-------------------|-------------------11--|--------------------------14----|
-------------------|-----------------------|--------------------------------|
-------------------|-----------------------|--------------------------------|
-------------------|-----------------------|--------------------------------|


                            Verse:

   H          Q.        A chord diagramE MajorE       H.           Q       W
----------------------------|---------------------|-------------------|
----------------------------|---------------------|-------------------|
--14b---------Lpb-------Ls--|--11-----------------|-------------------|
----------------------------|---------------------|-------------------|
----------------------------|---------------------|-------------------|
----------------------------|---------------------|-------------------|


  W                   W                   W                   W
-------------------|-------------------|-------------------|-------------------|
-------------------|-------------------|-------------------|-------------------|
-------------------|-------------------|-------------------|-------------------|
-------------------|-------------------|-------------------|-------------------|
-------------------|-------------------|-------------------|-------------------|
-------------------|-------------------|-------------------|-------------------|


  W                   W                   W                   W
-------------------|-------------------|-------------------|-------------------|
-------------------|-------------------|-------------------|-------------------|
-------------------|-------------------|-------------------|-------------------|
-------------------|-------------------|-------------------|-------------------|
-------------------|-------------------|-------------------|-------------------|
-------------------|-------------------|-------------------|-------------------|


  W                   W                   W                   W
-------------------|-------------------|-------------------|-------------------|
-------------------|-------------------|-------------------|-------------------|
-------------------|-------------------|-------------------|-------------------|
-------------------|-------------------|-------------------|-------------------|
-------------------|-------------------|-------------------|-------------------|
-------------------|-------------------|-------------------|-------------------|


  W                   W                   W                   W
-------------------|-------------------|-------------------|-------------------|
-------------------|-------------------|-------------------|-------------------|
-------------------|-------------------|-------------------|-------------------|
-------------------|-------------------|-------------------|-------------------|
-------------------|-------------------|-------------------|-------------------|
-------------------|-------------------|-------------------|-------------------|


  W                   W                   W                   W
-------------------|-------------------|-------------------|-------------------|
-------------------|-------------------|-------------------|-------------------|
-------------------|-------------------|-------------------|-------------------|
-------------------|-------------------|-------------------|-------------------|
-------------------|-------------------|-------------------|-------------------|
-------------------|-------------------|-------------------|-------------------|


              PM PM PM PM PM PM PM PM PM PM PM
  H           S  S  S  S  S  S  S  S  S  S  S  S S S S S
-----------|---------------------------------------------|
-----------|---------------------------------------------|
-----------|---------------------------------------------|
-----------|--------2--2--2--2--2--2--2--2--2--2-2-2-2-2-|
-----------|--0--0--0--0--0--0--0--0--0--0--0--0-0-0-0-0-|
-----------|---------------------------------------------|


     PM PM    PM PM                       PM PM    PM PM PM
  A chord diagramE MajorE  S  S  A chord diagramE MajorE  S  S  S S S S S S A chord diagramE MajorE      A chord diagramE MajorE  S  S  A chord diagramE MajorE  S  S  S  S A chord diagramE MajorE  S S A chord diagramE MajorE
------------------------------------|-----------------------------------|
------------------------------------|-----------------------------------|
------------------------------------|-----------------------------------|
--4--------4------------------------|------------------------------2-L--|
--2--2--2--2--2--2--------2-5-4-L~--|--5--------5-----------5-L--5-0-L--|
--------------------0-2-3-----------|--3--3--3--3--3--0--2--3-L--3------|



Verse:

     PM PM    PM PM                       PM PM    PM PM PM
  A chord diagramE MajorE  S  S  A chord diagramE MajorE  S  S  S S S S S S A chord diagramE MajorE      A chord diagramE MajorE  S  S  A chord diagramE MajorE  S  S  S  S A chord diagramE MajorE  S S A chord diagramE MajorE
------------------------------------|-----------------------------------|
------------------------------------|-----------------------------------|
------------------------------------|-----------------------------------|
--4--------4------------------------|------------------------------2-L--|
--2--2--2--2--2--2--------2-5-4-L~--|--5--------5-----------5-L--5-0-L--|
--------------------0-2-3-----------|--3--3--3--3--3--0--2--3-L--3------|


     PM PM    PM PM                       PM PM    PM PM PM
  A chord diagramE MajorE  S  S  A chord diagramE MajorE  S  S  S S S S S S A chord diagramE MajorE      A chord diagramE MajorE  S  S  A chord diagramE MajorE  S  S  S  S A chord diagramE MajorE  S S A chord diagramE MajorE
------------------------------------|-----------------------------------|
------------------------------------|-----------------------------------|
------------------------------------|-----------------------------------|
--4--------4------------------------|------------------------------2-L--|
--2--2--2--2--2--2--------2-5-4-L~--|--5--------5-----------5-L--5-0-L--|
--------------------0-2-3-----------|--3--3--3--3--3--0--2--3-L--3------|


     PM PM    PM PM                       PM PM    PM PM PM
  A chord diagramE MajorE  S  S  A chord diagramE MajorE  S  S  S S S S S S A chord diagramE MajorE      A chord diagramE MajorE  S  S  A chord diagramE MajorE  S  S  S  S A chord diagramE MajorE  S S A chord diagramE MajorE
------------------------------------|-----------------------------------|
------------------------------------|-----------------------------------|
------------------------------------|-----------------------------------|
--4--------4------------------------|------------------------------2-L--|
--2--2--2--2--2--2--------2-5-4-L~--|--5--------5-----------5-L--5-0-L--|
--------------------0-2-3-----------|--3--3--3--3--3--0--2--3-L--3------|


     PM PM    PM PM
  A chord diagramE MajorE  S  S  A chord diagramE MajorE  S  S  S S S S S S A chord diagramE MajorE
------------------------------------|
------------------------------------|
------------------------------------|
--4--------4------------------------|
--2--2--2--2--2--2--------2-5-4-L~--|
--------------------0-2-3-----------|


         Guitar solo:

     PM PM
                                                  |-----11----|  |-----11----|
  A chord diagramE MajorE  S  S  A chord diagramE MajorE  T  T  T  T  T  T  T  T  T  T  T  T  T  T  T  T  T  T  T  T  T  T
--------------------------------------------------------------------------------
----------------------------------------------------------------------------14-1
----------------------------------------------11-12-14-12-11----11-12-14-16-----
-------------------------11-12-11----11-12-14----------------14-----------------
--5--------5----10-12-14----------14--------------------------------------------
--3--3--3--3--------------------------------------------------------------------


   A chord diagramE MajorE      A chord diagramE MajorE    A chord diagramE MajorE   S  S   A chord diagramE MajorE    A chord diagramE MajorE   A chord diagramE MajorE   S  S
------------------17---------------------12-|
--17brb---Lpb--L-----17b--Lpb--Lb--L--15----|
--------------------------------------------|
--------------------------------------------|
--------------------------------------------|
--------------------------------------------|


   Q      A chord diagramE MajorE     S  S  A chord diagramE MajorE   S  S A chord diagramE MajorE   S  S
--15b-----Lpb--15-14-12--14-------12----|
----------------------------15-L-----15-|
----------------------------------------|
----------------------------------------|
----------------------------------------|
----------------------------------------|


   A chord diagramE MajorE   S  S A chord diagramE MajorE   S  S  S  A chord diagramE MajorE   S. T   S  S  S
---------------------17---------------------|
--14--15-12-L--14-15----15--14-15p-14-12----|
-----------------------------------------14-|
--------------------------------------------|
--------------------------------------------|
--------------------------------------------|


      A chord diagramE MajorE    S  S Q     S    S  S  S  S  S  S  S
-----------------------------------------------|
-----------------------------17----19----20----|
--14g16--\11-14-L-----L\-/16----16----16----16-|
-----------------------------------------------|
-----------------------------------------------|
-----------------------------------------------|


   A chord diagramE MajorE    A chord diagramE MajorE    S  S     S  S  A chord diagramE MajorE   A chord diagramE MajorE   S  S S S
-----------------------------------------7---|
--19b---Lpb--L--Lpbr-17----------------7---7-|
------------------------16-19b--L---L\-------|
---------------------------------------------|
---------------------------------------------|
---------------------------------------------|


  A chord diagramE MajorE   A chord diagramE MajorE    A chord diagramE MajorE     S S  A chord diagramE MajorE    S  E.   S  T  T
--9b--Lpb--Lpbr--7--------10-------7-------|
-------------------7-10b-----10b-----10p-7-|
-------------------------------------------|
-------------------------------------------|
-------------------------------------------|
-------------------------------------------|


  |--6--|  |-6-| |---6--|  |--6-|  |-----5----|
  S  S  S  S S S S    S S  S  S S  S   S S S  S A chord diagramE MajorE     S  S
-----------------------------------------------------------|
-----7-10p-7---7----------10p-7----------------------------|
--9b---------9---9pbr-7---------9b-9p~-7---9~---7brb-------|
------------------------9----------------9----9-------9s-7-|
-----------------------------------------------------------|
-----------------------------------------------------------|


  S  S A chord diagramE MajorE  A chord diagramE MajorE   S S S S S   S A chord diagramE MajorE  A chord diagramE MajorE
-----------------------------------|
-----------------------------------|
----------------7-6----------------|
-------------/7-----7-4-7g9-L--L\--|
--7s-5-5--5------------------------|
-----------------------------------|


                              |--6--|  |--6--|
  E.   S S S  S  S S   S A chord diagramE MajorE    S  S  S  S  S  S
--------------------------------------------10-|
--------------------------------------12-14----|
-----------------------------11-12-14----------|
-----------4-/9-11-9s-11-L~--------------------|
--2~---4-5-------------------------------------|
-----------------------------------------------|


   A chord diagramE MajorE    S  A chord diagramE MajorE    S  S    S  S  S  S S  S  S S     S
-------10------------------------------------------|
--12b-----12b-----10brb-L--L-----------------------|
---------------11------------12-11-9---------------|
-------------------------------------12-11-9-11g12-|
---------------------------------------------------|
---------------------------------------------------|


  |-----5-----|  |-----5-----|  |-----5-----|  |-----5----|  |------5-----|  |--
  T  T  T  T  T  T  T  T  T  T  T  T  T  T  T  T  T  T  T T  T  T   T  T  T  T
-------------------------------14----12-14--------------------------------------
-------------------------12-15----15-------15-12--------------------------------
----------11-14-11-12-14-------------------------14-11--------------------------
--9-11-12----------------------------------------------12-9---------------------
------------------------------------------------------------10s-9s-10-12-10p-9s-
--------------------------------------------------------------------------------


Outro Chorus:

   Q      A chord diagramE MajorE      S  S  Q     A chord diagramE MajorE   A chord diagramE MajorE      Q    Q    H
--17b-----Lbrb--17-14-19b----L-------|---------------------|-----|-----|-----|
--------------------------------20b--|--L------------------|-----|-----|-----|
-------------------------------------|---------------------|-----|-----|-----|
-------------------------------------|---------------------|-----|-----|-----|
-------------------------------------|---------------------|-----|-----|-----|
-------------------------------------|---------------------|-----|-----|-----|


              W                   W                   H        H
-----|-----|-------------------|-------------------|--------------------|
-----|-----|-------------------|-------------------|--------------------|
-----|-----|--4----------------|--L----------------|--L-----------------|
-----|-----|-------------------|-------------------|--------------------|
-----|-----|-------------------|-------------------|--------------------|
-----|-----|-------------------|-------------------|--------------------|


  W                   W                   W
-------------------|-------------------|-------------------||
-------------------|-------------------|-------------------||
-------------------|-------------------|-------------------||
-------------------|-------------------|-------------------||
-------------------|-------------------|-------------------||
-------------------|-------------------|-------------------||



Duration 🏷Legend
---------------
W - whole
H - half
Q - quarter
A chord diagramE MajorE - 8th
S - 16th
T - 32nd
X - 64th
. - note dotted
|-n-|  - n-tuplets


Tablature 🏷Legend
----------------
L - tied note
x - dead note
g - grace note
(n) - ghost note
> - accentuded note
NH - natural harmonic
AH - artificial harmonic
TH - tapped harmonic
SH - semi harmonic
PH - pitch harmonic
h - hammer on
p - pull off
b - bend
br - bendRelease
pb - preBend
pbr - preBendRelease
brb - bendReleaseBend
S - shift slide
s - legato slide
~ - vibrato

Almost there ...

Sign in to get your own page with links to favourite songs and more. You are just one click away...

Login with Facebook Login with Google