Log in

One click and you are in

Login with Facebook Login with Google

Why sign up and log in

Guitar Tabs Explorer
Tygers Of Pan Tang bass tabs for Words cut like knives

Words Cut Like Knives bass tab - Tygers Of Pan Tang

Tygers Of Pan Tang bass tabs for Words cut like knives

Bass tabs

Tuning: Standard (E A D G)


Bass

   W          W          W
G||-------------------|-------------------|-------------------|
D||-------------------|-------------------|-------------------|
A||-------------------|-------------------|-------------------|
E||-------------------|-------------------|-------------------|
          Verse:

 W          W          W          W
-------------------|-------------------|-------------------|-------------------|
-------------------|-------------------|-------------------|-------------------|
-------------------|-------------------|-------------------|-------------------|
-------------------|-------------------|-------------------|-------------------|


 W          W          W          W
-------------------|-------------------|-------------------|-------------------|
-------------------|-------------------|-------------------|-------------------|
-------------------|-------------------|-------------------|-------------------|
-------------------|-------------------|-------------------|-------------------|


          Chorus:

 W          W          W          W
-------------------|-------------------|-------------------|-------------------|
-------------------|-------------------|-------------------|-------------------|
-------------------|-------------------|-------------------|-------------------|
-------------------|-------------------|-------------------|-------------------|

 W          W          W          W
-------------------|-------------------|-------------------|-------------------|
-------------------|-------------------|-------------------|-------------------|
-------------------|-------------------|-------------------|-------------------|
-------------------|-------------------|-------------------|-------------------|


          Interlude: **bass starts at 1:05

 W          W          H    H
-------------------|-------------------|--------------------|
-------------------|-------------------|--9--------9--------|
-------------------|--7----------------|--------------------|
-------------------|-------------------|--------------------|


            Verse:

 H    Q.   E   W          H.      E E
-----------------------|-------------------|----------------------|
--9--------9-----------|-------------------|----------------------|
-----------------------|--2----------------|--5------------L--5\--|
------------------10\--|-------------------|----------------------|


 W          H.      E S S  W
-------------------|----------------------|-------------------|
-------------------|----------------------|-------------------|
-------------------|------------------5-4-|--2----------------|
--3----------------|--0------------L------|-------------------|


 H.      E E   W          H.      E S S
----------------------|-------------------|----------------------|
----------------------|-------------------|----------------------|
--5------------L--5\--|-------------------|------------------5-4-|
----------------------|--3----------------|--0------------L------|


Chorus:

 H    H      H.      E S S  H    H
--------------------|-----------------------|--------------------|
--------------------|-----------------------|--------------------|
--------------------|-----------------------|--------------------|
--3--------5--------|--7------------7--L\---|--3--------5--------|


 H.      E E   H    H      H.      E E
----------------------|--------------------|----------------------|
----------------------|--------------------|----------------------|
----------------------|--------------------|----------------------|
--7------------7--L\--|--3--------5--------|--7------------7--L\--|


 H    H      H    H      H    H
--------------------|--------------------|--------------------|
--------------------|--------------------|--------------------|
--------------------|--------------------|-----------0--------|
--3--------5--------|--0--------2--------|--3-----------------|


 H    H      H    H      H    H
--------------------|--------------------|--------------------|
--------------------|--------------------|--------------------|
--------------------|-----------0--------|--------------------|
--0--------2--------|--3-----------------|--0--------2--------|


 H    H      H    H      H
--------------------|--------------------|-----------|
--------------------|--------------------|-----------|
-----------0--------|--------------------|-----------|
--3-----------------|--0--------2--------|--3--------|



 S S S S S S S S S S S S S S S S  W
----------------------------------|-------------------|
----------------------------------|-------------------|
--0-0-0-0-0-0-0-0-0-0-0-0-0-0-0-0-|-------------------|
----------------------------------|-------------------|


              Verse:

 Q  E. S S S S S S E.   E S S E S S S S S S S S E
---------------------------|-------------------------------|
---------------------------|-------------------------------|
---------------------------|--2--2-2-2--2-2-------2-5-4-L--|
-----------0-2-3-L-2-3-5---|----------------0-2-3----------|


 E S S E S S S S S S S E.   E S S E S S S S S S S S E
------------------------------|-------------------------------|
------------------------------|-------------------------------|
------------------------------|--2--2-2-2--2-2-------2-5-4-L--|
--3--L-3-3--L-3-2-3-L-2-3-5---|----------------0-2-3----------|


 E S S E S S S S S S S E.   E S S E S S S S S S S S E
------------------------------|-------------------------------|
------------------------------|-------------------------------|
------------------------------|--2--2-2-2--2-2-------2-5-4-L--|
--3--L-3-3--L-0-2-3-L-2-3-5---|----------------0-2-3----------|


 E S S E S S S S S S S E.   E S S E S S S S S S S S E
------------------------------|-------------------------------|
------------------------------|-------------------------------|
------------------------------|--2--2-2-2--2-2-------2-5-4-L--|
--3--L-3-3--L-0-2-3-L-2-3-5---|----------------0-2-3----------|


Guitar solo:

 E S S E S S S S S S S E.   Q  E S S S S E S S S S
------------------------------|-----------------------------|
------------------------------|-----------------------------|
------------------------------|--2----2--L-0-2-0-2--2-0-2-0-|
--3--L-3-3--L-0-2-3-L-2-3-5---|-----------------------------|


 Q  E S S S S E S S S S  E E E S S S S S S S S S S
-----------------------------|-------------------------------|
-----------------------------|-------------------------------|
---------------------------0-|--2--2--2--L-------------------|
--3----3--L-2-3-0-3--3-2-3---|-------------3-5---5-5-5-5-5-3-|


 Q  E S S S S E S S S S  Q  E. S S S S S S E.
-----------------------------|---------------------------|
-----------------------------|---------------------------|
-----------------------------|---------------------------|
--3----3--L-2-3-0-3--3-2-3-2-|--0----0---0-0---0-0-0-2---|


 Q  E S S S S E S S S S  E E E S S S S S S S S S S
-----------------------------|-------------------------------|
-----------------------------|-------------------------------|
---------------------------0-|--2--2--2--L-------------------|
--3----3--L-2-3-0-3--3-2-3---|-------------3-5---5-5-5-5-5-3-|


 Q  E S S S S E S S S S  E E E S S S S S S S S S S
-----------------------------|-------------------------------|
-----------------------------|-------------------------------|
-----------------------------|--2--2--2--L-------------3-----|
--3----3--L-2-3-0-3--3-2-3-2-|-------------3-5---5-5-5---5-3-|


 E. E S S S Q  E E   S S S S S S S S S S S S S S S S
---------------------------|----------------------------------|
---------------------------|----------------------------------|
---------------------------|----------------------------------|
--0---2--0-3-L-3----3--3s--|--5-5-5-5-5-5-5-5-5-5-5-5-5-5-5-5-|


Outro Chorus:

 Q  S S E Q  S S E   Q  E. S S S E S S E
--------------------------|----------------------------|
--------------------------|----------------------------|
--------------------------|--2----2--------------------|
--3----L-0-3--5----L-0-5--|-----------5-7-0-7--7-5-7\--|


 Q  S S E Q  S S E   Q  E. S S S E S S E
--------------------------|----------------------------|
--------------------------|----------------------------|
--------------------------|----------------------------|
--3----L-0-3--5----L-3-5--|--7----7---5-7-0-7--7-5-7\--|


 Q  S S E Q  S S E   Q  E. S S S E S S E
--------------------------|----------------------------|
--------------------------|----------------------------|
--------------------------|----------------------------|
--3----L-0-3--5----L-3-5--|--7----7---5-7-0-7--7-5-7\--|


 Q  S S S S Q  S S S S  H.      E S S  H.      E S S
----------------------------|----------------------|----------------------|
----------------------------|----------------------|----------------------|
----------------------------|------------------5-4-|--2------------L--5-4-|
--3----3-0-3-0-5----L-3-5-5-|--0------------L------|----------------------|


 H.      E S S  W          W
----------------------|-------------------|-------------------|
----------------------|-------------------|-------------------|
--2------------L--5-4-|--2----------------|--L----------------|
----------------------|-------------------|-------------------|


 W
-------------------||
-------------------||
--L----------------||
-------------------||



Duration 🏷Legend
---------------
W - whole
H - half
Q - quarter
E - 8th
S - 16th
. - note dotted
|-n-| - n-tuplets


Tablature 🏷Legend
----------------
L - tied note
x - dead note
g - grace note
(n) - ghost note
h - hammer on
p - pull off
b - bend
br - bendRelease
pb - preBend
pbr - preBendRelease
brb - bendReleaseBend
S - shift slide
s - legato slide
~ - vibrato

Almost there ...

Sign in to get your own page with links to favourite songs and more. You are just one click away...

Login with Facebook Login with Google