Log in

One click and you are in

Login with Facebook Login with Google

Why sign up and log in

Guitar Tabs Explorer
Two Gallants tabs for Crow jane

Guitar tabs with lyrics

Crow Jane
by: Two Gallants
tab done by: Dylan A.
This file is all my own work.

The chords are represented ABOVE the lyrics.
Capo on A chord diagramF#F# (2nd fret).
Chord names are based on the capo.
F#/D = 2x423x
Intro
Play once lucidly (free time), Than play once in rythm.
A chord diagramF#F#|-0--------------------------------------------------------------|
A chord diagramC#C#|-1-------1------------------------------------------1-----------|
A chord diagramA augmentedA |-0h2-0h2---2---0---0---0h2-------2p0------------2-------2---2---|
A chord diagramE MajorE |-2---------------2---------0h1h2-----0h2p0--------2-------2-----|
A chord diagramBB |-0-----------0-------0---------------------3b-0---------------0-|
A chord diagramF#F#|------------------------------------------------------0---------|


|---------------------------------------------------------------|
|----------------1----------------------------------1-----------|
|------------2-------------------2p0------------2-------2---2---|
|-----0--------2---------2-0h1h2-----0h2p0--------2-------2-----|
|-0h3---3b-0-------3p0-3-------------------3b-0---------------0-|
|-----------------------------------------------------0---------|


Verse 1 (Play lucidly and arpeggiate all chords)
          Dmin
Well now, crow jane don't make no sense to me
Amin
     She left me hanging from the poppa tree
A chord diagramG+G
  Boy, I've never ever felt so free
Amin
     Look at, momma, what your doin' to me
        Dmin
Because it ain't no difference which way I smile
Amin
     I ain't good lookin' from a quarter mile
A chord diagramG+G
  Once had a woman, called me 'angel child'
Amin
     My reputation keeps me on trial


Chorus
A chord diagramFF              A chord diagramG+G                  A chord diagramC majorC
  Who's gonna save me from myself
A chord diagramFF                 A chord diagramG+G              A chord diagramC majorC   A chord diagramG+G   A chord diagramFF
  Gotta lay the blame on someone else
Amin             A chord diagramG+G
Somehow I ain't got no hope
     A chord diagramC majorC                          A chord diagramFF
'Cus I'm still runnin' from the sheriff's rope
   Amin                          A chord diagramG+G
My shoes don't fit me 'cus their filled with dope
A chord diagramC majorC            A chord diagramG+G             A chord diagramFF
Crow jane quit me and I just can't cope
Emin                    Dmin
     But all I know is that I'll still run
A chord diagramG+G                          A chord diagramFF
  Pledge allegiance to the setting sun
Emin                       Dmin
     I must have lost 'cus crow jane won
A chord diagramFF                  F#/D
  I'll never learn      from anything I've done


Ending on Chorus
|---------0-------------------------|
|---1-------------1---1-----1---0---|
|-------------0-----------0---0-----|
|-----2---------2-------2---------0-|
|-3-----------------3-------3---2---|
|-----------3-----------------------|

Play Intro once


Verse 2 (same as Verse 1, but in rythm)
Crow jane's the strangest thing that ever talked
Lips of honey but her tongues of chalk
Feet may be crooked but they sure could walk
She took my money and left me in shock
Got so many matches that it makes me sick
So many habits that I just can't kick
So many women that I just can't trick
And she burnt me like a candlestick

Play Chorus

Play Intro once


Verse 3 (Same as Verse 1, play in rythm)
Crow jane ain't nothin' but a painful case
She left me suckin' on my own disgrace
She's off truckin' at a cheating pace
And a lawless life is all I can embrace
Dressed like a preacher so I can't be found
Chase crow jane from town to town
I smell her brain so she must be around
Just like my pain, the sun goes down

Play Chorus

Play Intro once


Outro
|-0--------------------------------------------------------------|
|-1-------1------------------------------------------1-----------|
|-0h2-0h2---2---0---0---0h2-------2p0------------2-------2---2---|
|-2---------------2---------0h1h2-----0h2p0--------2-------2-----|
|-0-----------0-------0---------------------3b-0---------------0-|
|------------------------------------------------------0---------|


|-------------------------------------------------------------|
|----------------1----------------------------------1---------|
|------------2-------------------2p0------------2-------2---2-|
|-----0--------2---------2-0h1h2-----0h2p0--------2-------2---|
|-0h3---3b-0-------3p0-3-------------------3b-0---------------|
|-----------------------------------------------------0-------|

                  ||                     ||
   Play this part \/ 3x then end on this \/
|------------------------------------|------0-|
|--------------------------1---------|-----1--|
|-------2p0------------2-------2---2-|----2---|
|-0h1h2-----0h2p0--------2-------2---|---2----|
|-----------------3b-0---------------|--0-----|
|----------------------------0-------|-0------|

_________________________________________________________________

Almost there ...

Sign in to get your own page with links to favourite songs and more. You are just one click away...

Login with Facebook Login with Google